  0
SECTION
  2
HEADER
  9
$ACADVER
  1
AC1015
  9
$ACADMAINTVER
 70
     6
  9
$DWGCODEPAGE
  3
ANSI_1254
  9
$INSBASE
 10
0.0
 20
0.0
 30
0.0
  9
$EXTMIN
 10
0.0
 20
0.0
 30
0.0
  9
$EXTMAX
 10
279.4
 20
215.9
 30
0.0
  9
$LIMMIN
 10
0.0
 20
0.0
  9
$LIMMAX
 10
279.4
 20
215.9
  9
$ORTHOMODE
 70
     0
  9
$REGENMODE
 70
     1
  9
$FILLMODE
 70
     1
  9
$QTEXTMODE
 70
     0
  9
$MIRRTEXT
 70
     1
  9
$LTSCALE
 40
1.0
  9
$ATTMODE
 70
     1
  9
$TEXTSIZE
 40
3.5
  9
$TRACEWID
 40
1.0
  9
$TEXTSTYLE
  7
Standard
  9
$CLAYER
  8
0
  9
$CELTYPE
  6
ByLayer
  9
$CECOLOR
 62
   256
  9
$CELTSCALE
 40
1.0
  9
$DISPSILH
 70
     0
  9
$DIMSCALE
 40
1.0
  9
$DIMASZ
 40
3.5
  9
$DIMEXO
 40
1.0
  9
$DIMDLI
 40
3.75
  9
$DIMRND
 40
0.0
  9
$DIMDLE
 40
0.0
  9
$DIMEXE
 40
1.0
  9
$DIMTP
 40
0.0
  9
$DIMTM
 40
0.0
  9
$DIMTXT
 40
3.5
  9
$DIMCEN
 40
2.5
  9
$DIMTSZ
 40
0.0
  9
$DIMTOL
 70
     0
  9
$DIMLIM
 70
     0
  9
$DIMTIH
 70
     1
  9
$DIMTOH
 70
     1
  9
$DIMSE1
 70
     0
  9
$DIMSE2
 70
     0
  9
$DIMTAD
 70
     1
  9
$DIMZIN
 70
     0
  9
$DIMBLK
  1

  9
$DIMASO
 70
     1
  9
$DIMSHO
 70
     1
  9
$DIMPOST
  1

  9
$DIMAPOST
  1

  9
$DIMALT
 70
     0
  9
$DIMALTD
 70
     3
  9
$DIMALTF
 40
0.0393700787
  9
$DIMLFAC
 40
1.0
  9
$DIMTOFL
 70
     1
  9
$DIMTVP
 40
0.0
  9
$DIMTIX
 70
     0
  9
$DIMSOXD
 70
     0
  9
$DIMSAH
 70
     0
  9
$DIMBLK1
  1

  9
$DIMBLK2
  1

  9
$DIMSTYLE
  2
ISO-25
  9
$DIMCLRD
 70
     0
  9
$DIMCLRE
 70
     0
  9
$DIMCLRT
 70
     0
  9
$DIMTFAC
 40
1.0
  9
$DIMGAP
 40
1.524
  9
$DIMJUST
 70
     0
  9
$DIMSD1
 70
     0
  9
$DIMSD2
 70
     0
  9
$DIMTOLJ
 70
     0
  9
$DIMTZIN
 70
     0
  9
$DIMALTZ
 70
     0
  9
$DIMALTTZ
 70
     0
  9
$DIMUPT
 70
     0
  9
$DIMDEC
 70
     2
  9
$DIMTDEC
 70
     2
  9
$DIMALTU
 70
     2
  9
$DIMALTTD
 70
     3
  9
$DIMTXSTY
  7
Standard
  9
$DIMAUNIT
 70
     0
  9
$DIMADEC
 70
     2
  9
$DIMALTRND
 40
0.0
  9
$DIMAZIN
 70
     0
  9
$DIMDSEP
 70
    44
  9
$DIMATFIT
 70
     3
  9
$DIMFRAC
 70
     0
  9
$DIMLDRBLK
  1

  9
$DIMLUNIT
 70
     2
  9
$DIMLWD
 70
    -2
  9
$DIMLWE
 70
    -2
  9
$DIMTMOVE
 70
     0
  9
$LUNITS
 70
     2
  9
$LUPREC
 70
     2
  9
$SKETCHINC
 40
1.0
  9
$FILLETRAD
 40
10.0
  9
$AUNITS
 70
     0
  9
$AUPREC
 70
     2
  9
$MENU
  1
.
  9
$ELEVATION
 40
0.0
  9
$PELEVATION
 40
0.0
  9
$THICKNESS
 40
0.0
  9
$LIMCHECK
 70
     0
  9
$CHAMFERA
 40
0.0
  9
$CHAMFERB
 40
0.0
  9
$CHAMFERC
 40
0.0
  9
$CHAMFERD
 40
0.0
  9
$SKPOLY
 70
     0
  9
$TDCREATE
 40
2459741.591023611
  9
$TDUCREATE
 40
2459741.466023611
  9
$TDUPDATE
 40
2459741.591026366
  9
$TDUUPDATE
 40
2459741.466026366
  9
$TDINDWG
 40
0.0000000116
  9
$TDUSRTIMER
 40
0.0000000116
  9
$USRTIMER
 70
     1
  9
$ANGBASE
 50
0.0
  9
$ANGDIR
 70
     0
  9
$PDMODE
 70
     0
  9
$PDSIZE
 40
-1.0
  9
$PLINEWID
 40
0.0
  9
$SPLFRAME
 70
     0
  9
$SPLINETYPE
 70
     6
  9
$SPLINESEGS
 70
     8
  9
$HANDSEED
  5
1BC
  9
$SURFTAB1
 70
     6
  9
$SURFTAB2
 70
     6
  9
$SURFTYPE
 70
     6
  9
$SURFU
 70
     6
  9
$SURFV
 70
     6
  9
$UCSBASE
  2

  9
$UCSNAME
  2

  9
$UCSORG
 10
0.0
 20
0.0
 30
0.0
  9
$UCSXDIR
 10
1.0
 20
0.0
 30
0.0
  9
$UCSYDIR
 10
0.0
 20
1.0
 30
0.0
  9
$UCSORTHOREF
  2

  9
$UCSORTHOVIEW
 70
     0
  9
$UCSORGTOP
 10
0.0
 20
0.0
 30
0.0
  9
$UCSORGBOTTOM
 10
0.0
 20
0.0
 30
0.0
  9
$UCSORGLEFT
 10
0.0
 20
0.0
 30
0.0
  9
$UCSORGRIGHT
 10
0.0
 20
0.0
 30
0.0
  9
$UCSORGFRONT
 10
0.0
 20
0.0
 30
0.0
  9
$UCSORGBACK
 10
0.0
 20
0.0
 30
0.0
  9
$PUCSBASE
  2

  9
$PUCSNAME
  2

  9
$PUCSORG
 10
0.0
 20
0.0
 30
0.0
  9
$PUCSXDIR
 10
1.0
 20
0.0
 30
0.0
  9
$PUCSYDIR
 10
0.0
 20
1.0
 30
0.0
  9
$PUCSORTHOREF
  2

  9
$PUCSORTHOVIEW
 70
     0
  9
$PUCSORGTOP
 10
0.0
 20
0.0
 30
0.0
  9
$PUCSORGBOTTOM
 10
0.0
 20
0.0
 30
0.0
  9
$PUCSORGLEFT
 10
0.0
 20
0.0
 30
0.0
  9
$PUCSORGRIGHT
 10
0.0
 20
0.0
 30
0.0
  9
$PUCSORGFRONT
 10
0.0
 20
0.0
 30
0.0
  9
$PUCSORGBACK
 10
0.0
 20
0.0
 30
0.0
  9
$USERI1
 70
     0
  9
$USERI2
 70
     0
  9
$USERI3
 70
     0
  9
$USERI4
 70
     0
  9
$USERI5
 70
     0
  9
$USERR1
 40
0.0
  9
$USERR2
 40
0.0
  9
$USERR3
 40
0.0
  9
$USERR4
 40
0.0
  9
$USERR5
 40
0.0
  9
$WORLDVIEW
 70
     1
  9
$SHADEDGE
 70
     3
  9
$SHADEDIF
 70
    70
  9
$TILEMODE
 70
     1
  9
$MAXACTVP
 70
    64
  9
$PINSBASE
 10
0.0
 20
0.0
 30
0.0
  9
$PLIMCHECK
 70
     0
  9
$PEXTMIN
 10
1.0000000000E+20
 20
1.0000000000E+20
 30
1.0000000000E+20
  9
$PEXTMAX
 10
-1.0000000000E+20
 20
-1.0000000000E+20
 30
-1.0000000000E+20
  9
$PLIMMIN
 10
0.0
 20
0.0
  9
$PLIMMAX
 10
420.0
 20
297.0
  9
$UNITMODE
 70
     0
  9
$VISRETAIN
 70
     1
  9
$PLINEGEN
 70
     0
  9
$PSLTSCALE
 70
     1
  9
$TREEDEPTH
 70
  3020
  9
$CMLSTYLE
  2
Standard
  9
$CMLJUST
 70
     0
  9
$CMLSCALE
 40
20.0
  9
$PROXYGRAPHICS
 70
     1
  9
$MEASUREMENT
 70
     1
  9
$CELWEIGHT
370
    -1
  9
$ENDCAPS
280
     0
  9
$JOINSTYLE
280
     0
  9
$LWDISPLAY
290
     1
  9
$INSUNITS
 70
     4
  9
$HYPERLINKBASE
  1

  9
$STYLESHEET
  1

  9
$XEDIT
290
     1
  9
$CEPSNTYPE
380
     0
  9
$PSTYLEMODE
290
     1
  9
$FINGERPRINTGUID
  2
{4b2b9479-9c2a-40e9-86cc-8ac4834bedef}
  9
$VERSIONGUID
  2
{FAEB1C32-E019-11D5-929B-00C0DF256EC4}
  9
$EXTNAMES
290
     1
  9
$PSVPSCALE
 40
0.0
  9
$OLESTARTUP
290
     0
  0
ENDSEC
  0
SECTION
  2
CLASSES
  0
CLASS
  1
ACDBDICTIONARYWDFLT
  2
AcDbDictionaryWithDefault
  3
ObjectDBX Classes
 90
        0
280
     0
281
     0
  0
CLASS
  1
VISUALSTYLE
  2
AcDbVisualStyle
  3
ObjectDBX Classes
 90
     4095
280
     0
281
     0
  0
CLASS
  1
MATERIAL
  2
AcDbMaterial
  3
ObjectDBX Classes
 90
     1153
280
     0
281
     0
  0
CLASS
  1
SCALE
  2
AcDbScale
  3
ObjectDBX Classes
 90
     1153
280
     0
281
     0
  0
CLASS
  1
TABLESTYLE
  2
AcDbTableStyle
  3
ObjectDBX Classes
 90
     4095
280
     0
281
     0
  0
CLASS
  1
MLEADERSTYLE
  2
AcDbMLeaderStyle
  3
ACDB_MLEADERSTYLE_CLASS
 90
     4095
280
     0
281
     0
  0
CLASS
  1
SUN
  2
AcDbSun
  3
SCENEOE
 90
     1153
280
     0
281
     0
  0
CLASS
  1
ACDBPLACEHOLDER
  2
AcDbPlaceHolder
  3
ObjectDBX Classes
 90
        0
280
     0
281
     0
  0
CLASS
  1
LAYOUT
  2
AcDbLayout
  3
ObjectDBX Classes
 90
        0
280
     0
281
     0
  0
ENDSEC
  0
SECTION
  2
TABLES
  0
TABLE
  2
VPORT
  5
8
330
0
100
AcDbSymbolTable
 70
     1
  0
VPORT
  5
29
330
8
100
AcDbSymbolTableRecord
100
AcDbViewportTableRecord
  2
*Active
 70
     0
 10
0.0
 20
0.0
 11
1.0
 21
1.0
 12
139.7
 22
107.95
 13
0.0
 23
0.0
 14
10.0
 24
10.0
 15
10.0
 25
10.0
 16
0.0
 26
0.0
 36
1.0
 17
0.0
 27
0.0
 37
0.0
 40
215.9
 41
1.2941176471
 42
50.0
 43
0.0
 44
0.0
 50
0.0
 51
0.0
 71
     0
 72
  2000
 73
     1
 74
     3
 75
     0
 76
     0
 77
     0
 78
     0
281
     0
 65
     1
110
0.0
120
0.0
130
0.0
111
1.0
121
0.0
131
0.0
112
0.0
122
1.0
132
0.0
 79
     0
146
0.0
  0
ENDTAB
  0
TABLE
  2
LTYPE
  5
5
330
0
100
AcDbSymbolTable
 70
     6
  0
LTYPE
  5
14
330
5
100
AcDbSymbolTableRecord
100
AcDbLinetypeTableRecord
  2
ByBlock
 70
     0
  3

 72
    65
 73
     0
 40
0.0
  0
LTYPE
  5
15
330
5
100
AcDbSymbolTableRecord
100
AcDbLinetypeTableRecord
  2
ByLayer
 70
     0
  3

 72
    65
 73
     0
 40
0.0
  0
LTYPE
  5
16
330
5
100
AcDbSymbolTableRecord
100
AcDbLinetypeTableRecord
  2
Continuous
 70
     0
  3
Solid line
 72
    65
 73
     0
 40
0.0
  0
LTYPE
  5
6E
330
5
100
AcDbSymbolTableRecord
100
AcDbLinetypeTableRecord
  2
HIDDEN
 70
     0
  3
Hidden __ __ __ __ __ __ __ __ __ __ __ __ __ __
 72
    65
 73
     2
 40
1.905
 49
1.27
 74
     0
 49
-0.635
 74
     0
  0
LTYPE
  5
6F
330
5
100
AcDbSymbolTableRecord
100
AcDbLinetypeTableRecord
  2
PHANTOM
 70
     0
  3
Phantom ______  __  __  ______  __  __  ______
 72
    65
 73
     6
 40
12.7
 49
6.35
 74
     0
 49
-1.27
 74
     0
 49
1.27
 74
     0
 49
-1.27
 74
     0
 49
1.27
 74
     0
 49
-1.27
 74
     0
  0
LTYPE
  5
70
330
5
100
AcDbSymbolTableRecord
100
AcDbLinetypeTableRecord
  2
CENTER
 70
     0
  3
Center ____ _ ____ _ ____ _ ____ _ ____ _ ____
 72
    65
 73
     4
 40
10.16
 49
6.35
 74
     0
 49
-1.27
 74
     0
 49
1.27
 74
     0
 49
-1.27
 74
     0
  0
LTYPE
  5
71
330
5
100
AcDbSymbolTableRecord
100
AcDbLinetypeTableRecord
  2
CENTERX2
 70
     0
  3
Center (2x) ________  __  ________  __  _____
 72
    65
 73
     4
 40
20.32
 49
12.7
 74
     0
 49
-2.54
 74
     0
 49
2.54
 74
     0
 49
-2.54
 74
     0
  0
LTYPE
  5
72
330
5
100
AcDbSymbolTableRecord
100
AcDbLinetypeTableRecord
  2
DOT2
 70
     0
  3
Dot (.5x) ........................................
 72
    65
 73
     2
 40
0.635
 49
0.0
 74
     0
 49
-0.635
 74
     0
  0
ENDTAB
  0
TABLE
  2
LAYER
  5
2
330
0
100
AcDbSymbolTable
 70
    17
  0
LAYER
  5
10
330
2
100
AcDbSymbolTableRecord
100
AcDbLayerTableRecord
  2
0
 70
     0
 62
     7
  6
Continuous
370
    -3
390
F
  0
LAYER
  5
73
330
2
100
AcDbSymbolTableRecord
100
AcDbLayerTableRecord
  2
FORMAT
 70
     0
 62
     7
  6
Continuous
370
    -3
390
F
  0
LAYER
  5
74
330
2
100
AcDbSymbolTableRecord
100
AcDbLayerTableRecord
  2
YARDIMCI_GEOMETRI
 70
     0
 62
    -6
  6
Continuous
290
     0
370
    -3
390
F
  0
LAYER
  5
75
330
2
100
AcDbSymbolTableRecord
100
AcDbLayerTableRecord
  2
SAYFA_CERCEVESI
 70
     0
 62
     7
  6
Continuous
370
    25
390
F
  0
LAYER
  5
76
330
2
100
AcDbSymbolTableRecord
100
AcDbLayerTableRecord
  2
ANTET
 70
     0
 62
     7
  6
Continuous
370
    -3
390
F
  0
LAYER
  5
77
330
2
100
AcDbSymbolTableRecord
100
AcDbLayerTableRecord
  2
OLCU
 70
     0
 62
   150
  6
Continuous
370
    -3
390
F
  0
LAYER
  5
78
330
2
100
AcDbSymbolTableRecord
100
AcDbLayerTableRecord
  2
METIN
 70
     0
 62
    96
  6
Continuous
370
    -3
390
F
  0
LAYER
  5
79
330
2
100
AcDbSymbolTableRecord
100
AcDbLayerTableRecord
  2
BALON
 70
     0
 62
     5
  6
Continuous
370
    -3
390
F
  0
LAYER
  5
7A
330
2
100
AcDbSymbolTableRecord
100
AcDbLayerTableRecord
  2
VURGU
 70
     0
 62
     7
  6
Continuous
370
    -3
390
F
  0
LAYER
  5
7B
330
2
100
AcDbSymbolTableRecord
100
AcDbLayerTableRecord
  2
SILIK
 70
     0
 62
     7
  6
Continuous
370
    -3
390
F
  0
LAYER
  5
7C
330
2
100
AcDbSymbolTableRecord
100
AcDbLayerTableRecord
  2
MODEL
 70
     0
 62
     7
  6
Continuous
370
    -3
390
F
  0
LAYER
  5
7D
330
2
100
AcDbSymbolTableRecord
100
AcDbLayerTableRecord
  2
DETAYLANDıRMA
 70
     0
 62
   190
  6
Continuous
370
    -3
390
F
  0
LAYER
  5
7E
330
2
100
AcDbSymbolTableRecord
100
AcDbLayerTableRecord
  2
TOLERANS
 70
     0
 62
   230
  6
Continuous
370
    -3
390
F
  0
LAYER
  5
7F
330
2
100
AcDbSymbolTableRecord
100
AcDbLayerTableRecord
  2
MERKEZ_CIZGILERI
 70
     0
 62
    30
  6
Continuous
370
    -3
390
F
  0
LAYER
  5
80
330
2
100
AcDbSymbolTableRecord
100
AcDbLayerTableRecord
  2
KESIT-DETAY_CIZGILERI
 70
     0
 62
     7
  6
Continuous
370
    -3
390
F
  0
LAYER
  5
81
330
2
100
AcDbSymbolTableRecord
100
AcDbLayerTableRecord
  2
\U+041E\U+0421\U+0415\U+0412\U+042B\U+0415
 70
     0
 62
     7
  6
Continuous
370
    -3
390
F
  0
LAYER
  5
82
330
2
100
AcDbSymbolTableRecord
100
AcDbLayerTableRecord
  2
\U+0412\U+041E\U+0414\U+042F\U+041D\U+042B\U+0415_\U+0417\U+041D\U+0410\U+041A\U+0418
 70
     0
 62
    11
  6
Continuous
370
    -3
390
F
  0
ENDTAB
  0
TABLE
  2
STYLE
  5
3
330
0
100
AcDbSymbolTable
 70
     1
  0
STYLE
  5
11
330
3
100
AcDbSymbolTableRecord
100
AcDbTextStyleTableRecord
  2
Standard
 70
     0
 40
0.0
 41
1.0
 50
0.0
 71
     0
 42
3.5
  3
txt
  4

  0
ENDTAB
  0
TABLE
  2
VIEW
  5
6
330
0
100
AcDbSymbolTable
 70
     0
  0
ENDTAB
  0
TABLE
  2
UCS
  5
7
330
0
100
AcDbSymbolTable
 70
     0
  0
ENDTAB
  0
TABLE
  2
APPID
  5
9
330
0
100
AcDbSymbolTable
 70
     1
  0
APPID
  5
12
330
9
100
AcDbSymbolTableRecord
100
AcDbRegAppTableRecord
  2
ACAD
 70
     0
  0
ENDTAB
  0
TABLE
  2
DIMSTYLE
  5
A
330
0
100
AcDbSymbolTable
 70
     1
100
AcDbDimStyleTable
  0
DIMSTYLE
105
27
330
A
100
AcDbSymbolTableRecord
100
AcDbDimStyleTableRecord
  2
ISO-25
 70
     0
 41
2.5
 42
0.625
 43
3.75
 44
1.25
 73
     0
 74
     0
 77
     1
 78
     8
140
2.5
141
2.5
143
0.0393700787
147
0.625
171
     3
172
     1
178
     0
271
     2
272
     2
274
     3
278
    44
283
     0
284
     8
340
11
  0
ENDTAB
  0
TABLE
  2
BLOCK_RECORD
  5
1
330
0
100
AcDbSymbolTable
 70
    14
  0
BLOCK_RECORD
  5
1F
330
1
100
AcDbSymbolTableRecord
100
AcDbBlockTableRecord
  2
*Model_Space
340
22
  0
BLOCK_RECORD
  5
1B
330
1
100
AcDbSymbolTableRecord
100
AcDbBlockTableRecord
  2
*Paper_Space
340
1E
  0
BLOCK_RECORD
  5
23
330
1
100
AcDbSymbolTableRecord
100
AcDbBlockTableRecord
  2
*Paper_Space0
340
26
  0
BLOCK_RECORD
  5
9F
330
1
100
AcDbSymbolTableRecord
100
AcDbBlockTableRecord
  2
SW_CENTERMARKSYMBOL_0
340
0
102
{BLKREFS
331
AA
102
}
  0
BLOCK_RECORD
  5
AB
330
1
100
AcDbSymbolTableRecord
100
AcDbBlockTableRecord
  2
SW_CENTERMARKSYMBOL_1
340
0
102
{BLKREFS
331
B6
102
}
  0
BLOCK_RECORD
  5
B7
330
1
100
AcDbSymbolTableRecord
100
AcDbBlockTableRecord
  2
SW_CENTERMARKSYMBOL_2
340
0
102
{BLKREFS
331
C2
102
}
  0
BLOCK_RECORD
  5
C3
330
1
100
AcDbSymbolTableRecord
100
AcDbBlockTableRecord
  2
SW_CENTERMARKSYMBOL_3
340
0
102
{BLKREFS
331
CE
102
}
  0
BLOCK_RECORD
  5
CF
330
1
100
AcDbSymbolTableRecord
100
AcDbBlockTableRecord
  2
SW_CENTERMARKSYMBOL_4
340
0
102
{BLKREFS
331
DA
102
}
  0
BLOCK_RECORD
  5
DB
330
1
100
AcDbSymbolTableRecord
100
AcDbBlockTableRecord
  2
SW_CENTERMARKSYMBOL_5
340
0
102
{BLKREFS
331
E6
102
}
  0
BLOCK_RECORD
  5
E7
330
1
100
AcDbSymbolTableRecord
100
AcDbBlockTableRecord
  2
SW_CENTERMARKSYMBOL_6
340
0
102
{BLKREFS
331
F2
102
}
  0
BLOCK_RECORD
  5
F3
330
1
100
AcDbSymbolTableRecord
100
AcDbBlockTableRecord
  2
SW_CENTERMARKSYMBOL_7
340
0
102
{BLKREFS
331
FE
102
}
  0
BLOCK_RECORD
  5
FF
330
1
100
AcDbSymbolTableRecord
100
AcDbBlockTableRecord
  2
SW_CENTERMARKSYMBOL_8
340
0
102
{BLKREFS
331
10A
102
}
  0
BLOCK_RECORD
  5
10B
330
1
100
AcDbSymbolTableRecord
100
AcDbBlockTableRecord
  2
SW_CENTERMARKSYMBOL_9
340
0
102
{BLKREFS
331
116
102
}
  0
BLOCK_RECORD
  5
117
330
1
100
AcDbSymbolTableRecord
100
AcDbBlockTableRecord
  2
SW_CENTERMARKSYMBOL_10
340
0
102
{BLKREFS
331
122
102
}
  0
BLOCK_RECORD
  5
123
330
1
100
AcDbSymbolTableRecord
100
AcDbBlockTableRecord
  2
SW_CENTERMARKSYMBOL_11
340
0
102
{BLKREFS
331
12E
102
}
  0
BLOCK_RECORD
  5
12F
330
1
100
AcDbSymbolTableRecord
100
AcDbBlockTableRecord
  2
SW_CENTERMARKSYMBOL_12
340
0
102
{BLKREFS
331
13A
102
}
  0
ENDTAB
  0
ENDSEC
  0
SECTION
  2
BLOCKS
  0
BLOCK
  5
20
330
1F
100
AcDbEntity
  8
0
100
AcDbBlockBegin
  2
*Model_Space
 70
     0
 10
0.0
 20
0.0
 30
0.0
  3
*Model_Space
  1

  0
ENDBLK
  5
21
330
1F
100
AcDbEntity
  8
0
100
AcDbBlockEnd
  0
BLOCK
  5
1C
330
1B
100
AcDbEntity
 67
     1
  8
0
100
AcDbBlockBegin
  2
*Paper_Space
 70
     0
 10
0.0
 20
0.0
 30
0.0
  3
*Paper_Space
  1

  0
ENDBLK
  5
1D
330
1B
100
AcDbEntity
 67
     1
  8
0
100
AcDbBlockEnd
  0
BLOCK
  5
24
330
23
100
AcDbEntity
  8
0
100
AcDbBlockBegin
  2
*Paper_Space0
 70
     0
 10
0.0
 20
0.0
 30
0.0
  3
*Paper_Space0
  1

  0
ENDBLK
  5
25
330
23
100
AcDbEntity
  8
0
100
AcDbBlockEnd
  0
BLOCK
  5
A0
330
9F
100
AcDbEntity
  8
0
100
AcDbBlockBegin
  2
SW_CENTERMARKSYMBOL_0
 70
     0
 10
0.0
 20
0.0
 30
0.0
  3
SW_CENTERMARKSYMBOL_0
  1

  0
LINE
  5
A2
330
9F
100
AcDbEntity
  8
FORMAT
 62
     0
100
AcDbLine
 10
0.0
 20
0.0
 30
0.0
 11
0.0
 21
2.5
 31
0.0
  0
LINE
  5
A3
330
9F
100
AcDbEntity
  8
FORMAT
 62
     0
100
AcDbLine
 10
0.0
 20
0.0
 30
0.0
 11
-2.5
 21
0.0
 31
0.0
  0
LINE
  5
A4
330
9F
100
AcDbEntity
  8
FORMAT
 62
     0
100
AcDbLine
 10
0.0
 20
0.0
 30
0.0
 11
0.0
 21
-2.5
 31
0.0
  0
LINE
  5
A5
330
9F
100
AcDbEntity
  8
FORMAT
 62
     0
100
AcDbLine
 10
0.0
 20
0.0
 30
0.0
 11
2.5
 21
0.0
 31
0.0
  0
LINE
  5
A6
330
9F
100
AcDbEntity
  8
FORMAT
 62
     0
100
AcDbLine
 10
0.0
 20
5.0
 30
0.0
 11
0.0
 21
200.0
 31
0.0
  0
LINE
  5
A7
330
9F
100
AcDbEntity
  8
FORMAT
 62
     0
100
AcDbLine
 10
-5.0
 20
0.0
 30
0.0
 11
-200.0
 21
0.0
 31
0.0
  0
LINE
  5
A8
330
9F
100
AcDbEntity
  8
FORMAT
 62
     0
100
AcDbLine
 10
0.0
 20
-5.0
 30
0.0
 11
0.0
 21
-200.0
 31
0.0
  0
LINE
  5
A9
330
9F
100
AcDbEntity
  8
FORMAT
 62
     0
100
AcDbLine
 10
5.0
 20
0.0
 30
0.0
 11
200.0
 21
0.0
 31
0.0
  0
ENDBLK
  5
A1
330
9F
100
AcDbEntity
  8
0
100
AcDbBlockEnd
  0
BLOCK
  5
AC
330
AB
100
AcDbEntity
  8
0
100
AcDbBlockBegin
  2
SW_CENTERMARKSYMBOL_1
 70
     0
 10
0.0
 20
0.0
 30
0.0
  3
SW_CENTERMARKSYMBOL_1
  1

  0
LINE
  5
AE
330
AB
100
AcDbEntity
  8
FORMAT
 62
     0
100
AcDbLine
 10
0.0
 20
0.0
 30
0.0
 11
0.0
 21
2.5
 31
0.0
  0
LINE
  5
AF
330
AB
100
AcDbEntity
  8
FORMAT
 62
     0
100
AcDbLine
 10
0.0
 20
0.0
 30
0.0
 11
-2.5
 21
0.0
 31
0.0
  0
LINE
  5
B0
330
AB
100
AcDbEntity
  8
FORMAT
 62
     0
100
AcDbLine
 10
0.0
 20
0.0
 30
0.0
 11
0.0
 21
-2.5
 31
0.0
  0
LINE
  5
B1
330
AB
100
AcDbEntity
  8
FORMAT
 62
     0
100
AcDbLine
 10
0.0
 20
0.0
 30
0.0
 11
2.5
 21
0.0
 31
0.0
  0
LINE
  5
B2
330
AB
100
AcDbEntity
  8
FORMAT
 62
     0
100
AcDbLine
 10
0.0
 20
5.0
 30
0.0
 11
0.0
 21
13.5
 31
0.0
  0
LINE
  5
B3
330
AB
100
AcDbEntity
  8
FORMAT
 62
     0
100
AcDbLine
 10
-5.0
 20
0.0
 30
0.0
 11
-13.5
 21
0.0
 31
0.0
  0
LINE
  5
B4
330
AB
100
AcDbEntity
  8
FORMAT
 62
     0
100
AcDbLine
 10
0.0
 20
-5.0
 30
0.0
 11
0.0
 21
-13.5
 31
0.0
  0
LINE
  5
B5
330
AB
100
AcDbEntity
  8
FORMAT
 62
     0
100
AcDbLine
 10
5.0
 20
0.0
 30
0.0
 11
13.5
 21
0.0
 31
0.0
  0
ENDBLK
  5
AD
330
AB
100
AcDbEntity
  8
0
100
AcDbBlockEnd
  0
BLOCK
  5
B8
330
B7
100
AcDbEntity
  8
0
100
AcDbBlockBegin
  2
SW_CENTERMARKSYMBOL_2
 70
     0
 10
0.0
 20
0.0
 30
0.0
  3
SW_CENTERMARKSYMBOL_2
  1

  0
LINE
  5
BA
330
B7
100
AcDbEntity
  8
FORMAT
 62
     0
100
AcDbLine
 10
0.0
 20
0.0
 30
0.0
 11
0.0
 21
2.5
 31
0.0
  0
LINE
  5
BB
330
B7
100
AcDbEntity
  8
FORMAT
 62
     0
100
AcDbLine
 10
0.0
 20
0.0
 30
0.0
 11
-2.5
 21
0.0
 31
0.0
  0
LINE
  5
BC
330
B7
100
AcDbEntity
  8
FORMAT
 62
     0
100
AcDbLine
 10
0.0
 20
0.0
 30
0.0
 11
0.0
 21
-2.5
 31
0.0
  0
LINE
  5
BD
330
B7
100
AcDbEntity
  8
FORMAT
 62
     0
100
AcDbLine
 10
0.0
 20
0.0
 30
0.0
 11
2.5
 21
0.0
 31
0.0
  0
LINE
  5
BE
330
B7
100
AcDbEntity
  8
FORMAT
 62
     0
100
AcDbLine
 10
0.0
 20
5.0
 30
0.0
 11
0.0
 21
13.5
 31
0.0
  0
LINE
  5
BF
330
B7
100
AcDbEntity
  8
FORMAT
 62
     0
100
AcDbLine
 10
-5.0
 20
0.0
 30
0.0
 11
-13.5
 21
0.0
 31
0.0
  0
LINE
  5
C0
330
B7
100
AcDbEntity
  8
FORMAT
 62
     0
100
AcDbLine
 10
0.0
 20
-5.0
 30
0.0
 11
0.0
 21
-13.5
 31
0.0
  0
LINE
  5
C1
330
B7
100
AcDbEntity
  8
FORMAT
 62
     0
100
AcDbLine
 10
5.0
 20
0.0
 30
0.0
 11
13.5
 21
0.0
 31
0.0
  0
ENDBLK
  5
B9
330
B7
100
AcDbEntity
  8
0
100
AcDbBlockEnd
  0
BLOCK
  5
C4
330
C3
100
AcDbEntity
  8
0
100
AcDbBlockBegin
  2
SW_CENTERMARKSYMBOL_3
 70
     0
 10
0.0
 20
0.0
 30
0.0
  3
SW_CENTERMARKSYMBOL_3
  1

  0
LINE
  5
C6
330
C3
100
AcDbEntity
  8
FORMAT
 62
     0
100
AcDbLine
 10
0.0
 20
0.0
 30
0.0
 11
0.0
 21
2.5
 31
0.0
  0
LINE
  5
C7
330
C3
100
AcDbEntity
  8
FORMAT
 62
     0
100
AcDbLine
 10
0.0
 20
0.0
 30
0.0
 11
-2.5
 21
0.0
 31
0.0
  0
LINE
  5
C8
330
C3
100
AcDbEntity
  8
FORMAT
 62
     0
100
AcDbLine
 10
0.0
 20
0.0
 30
0.0
 11
0.0
 21
-2.5
 31
0.0
  0
LINE
  5
C9
330
C3
100
AcDbEntity
  8
FORMAT
 62
     0
100
AcDbLine
 10
0.0
 20
0.0
 30
0.0
 11
2.5
 21
0.0
 31
0.0
  0
LINE
  5
CA
330
C3
100
AcDbEntity
  8
FORMAT
 62
     0
100
AcDbLine
 10
0.0
 20
5.0
 30
0.0
 11
0.0
 21
13.5
 31
0.0
  0
LINE
  5
CB
330
C3
100
AcDbEntity
  8
FORMAT
 62
     0
100
AcDbLine
 10
-5.0
 20
0.0
 30
0.0
 11
-13.5
 21
0.0
 31
0.0
  0
LINE
  5
CC
330
C3
100
AcDbEntity
  8
FORMAT
 62
     0
100
AcDbLine
 10
0.0
 20
-5.0
 30
0.0
 11
0.0
 21
-13.5
 31
0.0
  0
LINE
  5
CD
330
C3
100
AcDbEntity
  8
FORMAT
 62
     0
100
AcDbLine
 10
5.0
 20
0.0
 30
0.0
 11
13.5
 21
0.0
 31
0.0
  0
ENDBLK
  5
C5
330
C3
100
AcDbEntity
  8
0
100
AcDbBlockEnd
  0
BLOCK
  5
D0
330
CF
100
AcDbEntity
  8
0
100
AcDbBlockBegin
  2
SW_CENTERMARKSYMBOL_4
 70
     0
 10
0.0
 20
0.0
 30
0.0
  3
SW_CENTERMARKSYMBOL_4
  1

  0
LINE
  5
D2
330
CF
100
AcDbEntity
  8
FORMAT
 62
     0
100
AcDbLine
 10
0.0
 20
0.0
 30
0.0
 11
0.0
 21
2.5
 31
0.0
  0
LINE
  5
D3
330
CF
100
AcDbEntity
  8
FORMAT
 62
     0
100
AcDbLine
 10
0.0
 20
0.0
 30
0.0
 11
-2.5
 21
0.0
 31
0.0
  0
LINE
  5
D4
330
CF
100
AcDbEntity
  8
FORMAT
 62
     0
100
AcDbLine
 10
0.0
 20
0.0
 30
0.0
 11
0.0
 21
-2.5
 31
0.0
  0
LINE
  5
D5
330
CF
100
AcDbEntity
  8
FORMAT
 62
     0
100
AcDbLine
 10
0.0
 20
0.0
 30
0.0
 11
2.5
 21
0.0
 31
0.0
  0
LINE
  5
D6
330
CF
100
AcDbEntity
  8
FORMAT
 62
     0
100
AcDbLine
 10
0.0
 20
5.0
 30
0.0
 11
0.0
 21
13.5
 31
0.0
  0
LINE
  5
D7
330
CF
100
AcDbEntity
  8
FORMAT
 62
     0
100
AcDbLine
 10
-5.0
 20
0.0
 30
0.0
 11
-13.5
 21
0.0
 31
0.0
  0
LINE
  5
D8
330
CF
100
AcDbEntity
  8
FORMAT
 62
     0
100
AcDbLine
 10
0.0
 20
-5.0
 30
0.0
 11
0.0
 21
-13.5
 31
0.0
  0
LINE
  5
D9
330
CF
100
AcDbEntity
  8
FORMAT
 62
     0
100
AcDbLine
 10
5.0
 20
0.0
 30
0.0
 11
13.5
 21
0.0
 31
0.0
  0
ENDBLK
  5
D1
330
CF
100
AcDbEntity
  8
0
100
AcDbBlockEnd
  0
BLOCK
  5
DC
330
DB
100
AcDbEntity
  8
0
100
AcDbBlockBegin
  2
SW_CENTERMARKSYMBOL_5
 70
     0
 10
0.0
 20
0.0
 30
0.0
  3
SW_CENTERMARKSYMBOL_5
  1

  0
LINE
  5
DE
330
DB
100
AcDbEntity
  8
FORMAT
 62
     0
100
AcDbLine
 10
0.0
 20
0.0
 30
0.0
 11
0.0
 21
2.5
 31
0.0
  0
LINE
  5
DF
330
DB
100
AcDbEntity
  8
FORMAT
 62
     0
100
AcDbLine
 10
0.0
 20
0.0
 30
0.0
 11
-2.5
 21
0.0
 31
0.0
  0
LINE
  5
E0
330
DB
100
AcDbEntity
  8
FORMAT
 62
     0
100
AcDbLine
 10
0.0
 20
0.0
 30
0.0
 11
0.0
 21
-2.5
 31
0.0
  0
LINE
  5
E1
330
DB
100
AcDbEntity
  8
FORMAT
 62
     0
100
AcDbLine
 10
0.0
 20
0.0
 30
0.0
 11
2.5
 21
0.0
 31
0.0
  0
LINE
  5
E2
330
DB
100
AcDbEntity
  8
FORMAT
 62
     0
100
AcDbLine
 10
0.0
 20
5.0
 30
0.0
 11
0.0
 21
14.5
 31
0.0
  0
LINE
  5
E3
330
DB
100
AcDbEntity
  8
FORMAT
 62
     0
100
AcDbLine
 10
-5.0
 20
0.0
 30
0.0
 11
-14.5
 21
0.0
 31
0.0
  0
LINE
  5
E4
330
DB
100
AcDbEntity
  8
FORMAT
 62
     0
100
AcDbLine
 10
0.0
 20
-5.0
 30
0.0
 11
0.0
 21
-14.5
 31
0.0
  0
LINE
  5
E5
330
DB
100
AcDbEntity
  8
FORMAT
 62
     0
100
AcDbLine
 10
5.0
 20
0.0
 30
0.0
 11
14.5
 21
0.0
 31
0.0
  0
ENDBLK
  5
DD
330
DB
100
AcDbEntity
  8
0
100
AcDbBlockEnd
  0
BLOCK
  5
E8
330
E7
100
AcDbEntity
  8
0
100
AcDbBlockBegin
  2
SW_CENTERMARKSYMBOL_6
 70
     0
 10
0.0
 20
0.0
 30
0.0
  3
SW_CENTERMARKSYMBOL_6
  1

  0
LINE
  5
EA
330
E7
100
AcDbEntity
  8
FORMAT
 62
     0
100
AcDbLine
 10
0.0
 20
0.0
 30
0.0
 11
0.0
 21
2.5
 31
0.0
  0
LINE
  5
EB
330
E7
100
AcDbEntity
  8
FORMAT
 62
     0
100
AcDbLine
 10
0.0
 20
0.0
 30
0.0
 11
-2.5
 21
0.0
 31
0.0
  0
LINE
  5
EC
330
E7
100
AcDbEntity
  8
FORMAT
 62
     0
100
AcDbLine
 10
0.0
 20
0.0
 30
0.0
 11
0.0
 21
-2.5
 31
0.0
  0
LINE
  5
ED
330
E7
100
AcDbEntity
  8
FORMAT
 62
     0
100
AcDbLine
 10
0.0
 20
0.0
 30
0.0
 11
2.5
 21
0.0
 31
0.0
  0
LINE
  5
EE
330
E7
100
AcDbEntity
  8
FORMAT
 62
     0
100
AcDbLine
 10
0.0
 20
5.0
 30
0.0
 11
0.0
 21
14.5
 31
0.0
  0
LINE
  5
EF
330
E7
100
AcDbEntity
  8
FORMAT
 62
     0
100
AcDbLine
 10
-5.0
 20
0.0
 30
0.0
 11
-14.5
 21
0.0
 31
0.0
  0
LINE
  5
F0
330
E7
100
AcDbEntity
  8
FORMAT
 62
     0
100
AcDbLine
 10
0.0
 20
-5.0
 30
0.0
 11
0.0
 21
-14.5
 31
0.0
  0
LINE
  5
F1
330
E7
100
AcDbEntity
  8
FORMAT
 62
     0
100
AcDbLine
 10
5.0
 20
0.0
 30
0.0
 11
14.5
 21
0.0
 31
0.0
  0
ENDBLK
  5
E9
330
E7
100
AcDbEntity
  8
0
100
AcDbBlockEnd
  0
BLOCK
  5
F4
330
F3
100
AcDbEntity
  8
0
100
AcDbBlockBegin
  2
SW_CENTERMARKSYMBOL_7
 70
     0
 10
0.0
 20
0.0
 30
0.0
  3
SW_CENTERMARKSYMBOL_7
  1

  0
LINE
  5
F6
330
F3
100
AcDbEntity
  8
FORMAT
 62
     0
100
AcDbLine
 10
0.0
 20
0.0
 30
0.0
 11
0.0
 21
2.5
 31
0.0
  0
LINE
  5
F7
330
F3
100
AcDbEntity
  8
FORMAT
 62
     0
100
AcDbLine
 10
0.0
 20
0.0
 30
0.0
 11
-2.5
 21
0.0
 31
0.0
  0
LINE
  5
F8
330
F3
100
AcDbEntity
  8
FORMAT
 62
     0
100
AcDbLine
 10
0.0
 20
0.0
 30
0.0
 11
0.0
 21
-2.5
 31
0.0
  0
LINE
  5
F9
330
F3
100
AcDbEntity
  8
FORMAT
 62
     0
100
AcDbLine
 10
0.0
 20
0.0
 30
0.0
 11
2.5
 21
0.0
 31
0.0
  0
LINE
  5
FA
330
F3
100
AcDbEntity
  8
FORMAT
 62
     0
100
AcDbLine
 10
0.0
 20
5.0
 30
0.0
 11
0.0
 21
14.5
 31
0.0
  0
LINE
  5
FB
330
F3
100
AcDbEntity
  8
FORMAT
 62
     0
100
AcDbLine
 10
-5.0
 20
0.0
 30
0.0
 11
-14.5
 21
0.0
 31
0.0
  0
LINE
  5
FC
330
F3
100
AcDbEntity
  8
FORMAT
 62
     0
100
AcDbLine
 10
0.0
 20
-5.0
 30
0.0
 11
0.0
 21
-14.5
 31
0.0
  0
LINE
  5
FD
330
F3
100
AcDbEntity
  8
FORMAT
 62
     0
100
AcDbLine
 10
5.0
 20
0.0
 30
0.0
 11
14.5
 21
0.0
 31
0.0
  0
ENDBLK
  5
F5
330
F3
100
AcDbEntity
  8
0
100
AcDbBlockEnd
  0
BLOCK
  5
100
330
FF
100
AcDbEntity
  8
0
100
AcDbBlockBegin
  2
SW_CENTERMARKSYMBOL_8
 70
     0
 10
0.0
 20
0.0
 30
0.0
  3
SW_CENTERMARKSYMBOL_8
  1

  0
LINE
  5
102
330
FF
100
AcDbEntity
  8
FORMAT
 62
     0
100
AcDbLine
 10
0.0
 20
0.0
 30
0.0
 11
0.0
 21
2.5
 31
0.0
  0
LINE
  5
103
330
FF
100
AcDbEntity
  8
FORMAT
 62
     0
100
AcDbLine
 10
0.0
 20
0.0
 30
0.0
 11
-2.5
 21
0.0
 31
0.0
  0
LINE
  5
104
330
FF
100
AcDbEntity
  8
FORMAT
 62
     0
100
AcDbLine
 10
0.0
 20
0.0
 30
0.0
 11
0.0
 21
-2.5
 31
0.0
  0
LINE
  5
105
330
FF
100
AcDbEntity
  8
FORMAT
 62
     0
100
AcDbLine
 10
0.0
 20
0.0
 30
0.0
 11
2.5
 21
0.0
 31
0.0
  0
LINE
  5
106
330
FF
100
AcDbEntity
  8
FORMAT
 62
     0
100
AcDbLine
 10
0.0
 20
5.0
 30
0.0
 11
0.0
 21
14.5
 31
0.0
  0
LINE
  5
107
330
FF
100
AcDbEntity
  8
FORMAT
 62
     0
100
AcDbLine
 10
-5.0
 20
0.0
 30
0.0
 11
-14.5
 21
0.0
 31
0.0
  0
LINE
  5
108
330
FF
100
AcDbEntity
  8
FORMAT
 62
     0
100
AcDbLine
 10
0.0
 20
-5.0
 30
0.0
 11
0.0
 21
-14.5
 31
0.0
  0
LINE
  5
109
330
FF
100
AcDbEntity
  8
FORMAT
 62
     0
100
AcDbLine
 10
5.0
 20
0.0
 30
0.0
 11
14.5
 21
0.0
 31
0.0
  0
ENDBLK
  5
101
330
FF
100
AcDbEntity
  8
0
100
AcDbBlockEnd
  0
BLOCK
  5
10C
330
10B
100
AcDbEntity
  8
0
100
AcDbBlockBegin
  2
SW_CENTERMARKSYMBOL_9
 70
     0
 10
0.0
 20
0.0
 30
0.0
  3
SW_CENTERMARKSYMBOL_9
  1

  0
LINE
  5
10E
330
10B
100
AcDbEntity
  8
FORMAT
 62
     0
100
AcDbLine
 10
0.0
 20
0.0
 30
0.0
 11
0.0
 21
2.5
 31
0.0
  0
LINE
  5
10F
330
10B
100
AcDbEntity
  8
FORMAT
 62
     0
100
AcDbLine
 10
0.0
 20
0.0
 30
0.0
 11
-2.5
 21
0.0
 31
0.0
  0
LINE
  5
110
330
10B
100
AcDbEntity
  8
FORMAT
 62
     0
100
AcDbLine
 10
0.0
 20
0.0
 30
0.0
 11
0.0
 21
-2.5
 31
0.0
  0
LINE
  5
111
330
10B
100
AcDbEntity
  8
FORMAT
 62
     0
100
AcDbLine
 10
0.0
 20
0.0
 30
0.0
 11
2.5
 21
0.0
 31
0.0
  0
LINE
  5
112
330
10B
100
AcDbEntity
  8
FORMAT
 62
     0
100
AcDbLine
 10
0.0
 20
5.0
 30
0.0
 11
0.0
 21
14.5
 31
0.0
  0
LINE
  5
113
330
10B
100
AcDbEntity
  8
FORMAT
 62
     0
100
AcDbLine
 10
-5.0
 20
0.0
 30
0.0
 11
-14.5
 21
0.0
 31
0.0
  0
LINE
  5
114
330
10B
100
AcDbEntity
  8
FORMAT
 62
     0
100
AcDbLine
 10
0.0
 20
-5.0
 30
0.0
 11
0.0
 21
-14.5
 31
0.0
  0
LINE
  5
115
330
10B
100
AcDbEntity
  8
FORMAT
 62
     0
100
AcDbLine
 10
5.0
 20
0.0
 30
0.0
 11
14.5
 21
0.0
 31
0.0
  0
ENDBLK
  5
10D
330
10B
100
AcDbEntity
  8
0
100
AcDbBlockEnd
  0
BLOCK
  5
118
330
117
100
AcDbEntity
  8
0
100
AcDbBlockBegin
  2
SW_CENTERMARKSYMBOL_10
 70
     0
 10
0.0
 20
0.0
 30
0.0
  3
SW_CENTERMARKSYMBOL_10
  1

  0
LINE
  5
11A
330
117
100
AcDbEntity
  8
FORMAT
 62
     0
100
AcDbLine
 10
0.0
 20
0.0
 30
0.0
 11
0.0
 21
2.5
 31
0.0
  0
LINE
  5
11B
330
117
100
AcDbEntity
  8
FORMAT
 62
     0
100
AcDbLine
 10
0.0
 20
0.0
 30
0.0
 11
-2.5
 21
0.0
 31
0.0
  0
LINE
  5
11C
330
117
100
AcDbEntity
  8
FORMAT
 62
     0
100
AcDbLine
 10
0.0
 20
0.0
 30
0.0
 11
0.0
 21
-2.5
 31
0.0
  0
LINE
  5
11D
330
117
100
AcDbEntity
  8
FORMAT
 62
     0
100
AcDbLine
 10
0.0
 20
0.0
 30
0.0
 11
2.5
 21
0.0
 31
0.0
  0
LINE
  5
11E
330
117
100
AcDbEntity
  8
FORMAT
 62
     0
100
AcDbLine
 10
0.0
 20
5.0
 30
0.0
 11
0.0
 21
14.5
 31
0.0
  0
LINE
  5
11F
330
117
100
AcDbEntity
  8
FORMAT
 62
     0
100
AcDbLine
 10
-5.0
 20
0.0
 30
0.0
 11
-14.5
 21
0.0
 31
0.0
  0
LINE
  5
120
330
117
100
AcDbEntity
  8
FORMAT
 62
     0
100
AcDbLine
 10
0.0
 20
-5.0
 30
0.0
 11
0.0
 21
-14.5
 31
0.0
  0
LINE
  5
121
330
117
100
AcDbEntity
  8
FORMAT
 62
     0
100
AcDbLine
 10
5.0
 20
0.0
 30
0.0
 11
14.5
 21
0.0
 31
0.0
  0
ENDBLK
  5
119
330
117
100
AcDbEntity
  8
0
100
AcDbBlockEnd
  0
BLOCK
  5
124
330
123
100
AcDbEntity
  8
0
100
AcDbBlockBegin
  2
SW_CENTERMARKSYMBOL_11
 70
     0
 10
0.0
 20
0.0
 30
0.0
  3
SW_CENTERMARKSYMBOL_11
  1

  0
LINE
  5
126
330
123
100
AcDbEntity
  8
FORMAT
 62
     0
100
AcDbLine
 10
0.0
 20
0.0
 30
0.0
 11
0.0
 21
2.5
 31
0.0
  0
LINE
  5
127
330
123
100
AcDbEntity
  8
FORMAT
 62
     0
100
AcDbLine
 10
0.0
 20
0.0
 30
0.0
 11
-2.5
 21
0.0
 31
0.0
  0
LINE
  5
128
330
123
100
AcDbEntity
  8
FORMAT
 62
     0
100
AcDbLine
 10
0.0
 20
0.0
 30
0.0
 11
0.0
 21
-2.5
 31
0.0
  0
LINE
  5
129
330
123
100
AcDbEntity
  8
FORMAT
 62
     0
100
AcDbLine
 10
0.0
 20
0.0
 30
0.0
 11
2.5
 21
0.0
 31
0.0
  0
LINE
  5
12A
330
123
100
AcDbEntity
  8
FORMAT
 62
     0
100
AcDbLine
 10
0.0
 20
5.0
 30
0.0
 11
0.0
 21
14.5
 31
0.0
  0
LINE
  5
12B
330
123
100
AcDbEntity
  8
FORMAT
 62
     0
100
AcDbLine
 10
-5.0
 20
0.0
 30
0.0
 11
-14.5
 21
0.0
 31
0.0
  0
LINE
  5
12C
330
123
100
AcDbEntity
  8
FORMAT
 62
     0
100
AcDbLine
 10
0.0
 20
-5.0
 30
0.0
 11
0.0
 21
-14.5
 31
0.0
  0
LINE
  5
12D
330
123
100
AcDbEntity
  8
FORMAT
 62
     0
100
AcDbLine
 10
5.0
 20
0.0
 30
0.0
 11
14.5
 21
0.0
 31
0.0
  0
ENDBLK
  5
125
330
123
100
AcDbEntity
  8
0
100
AcDbBlockEnd
  0
BLOCK
  5
130
330
12F
100
AcDbEntity
  8
0
100
AcDbBlockBegin
  2
SW_CENTERMARKSYMBOL_12
 70
     0
 10
0.0
 20
0.0
 30
0.0
  3
SW_CENTERMARKSYMBOL_12
  1

  0
LINE
  5
132
330
12F
100
AcDbEntity
  8
FORMAT
 62
     0
100
AcDbLine
 10
0.0
 20
0.0
 30
0.0
 11
0.0
 21
2.5
 31
0.0
  0
LINE
  5
133
330
12F
100
AcDbEntity
  8
FORMAT
 62
     0
100
AcDbLine
 10
0.0
 20
0.0
 30
0.0
 11
-2.5
 21
0.0
 31
0.0
  0
LINE
  5
134
330
12F
100
AcDbEntity
  8
FORMAT
 62
     0
100
AcDbLine
 10
0.0
 20
0.0
 30
0.0
 11
0.0
 21
-2.5
 31
0.0
  0
LINE
  5
135
330
12F
100
AcDbEntity
  8
FORMAT
 62
     0
100
AcDbLine
 10
0.0
 20
0.0
 30
0.0
 11
2.5
 21
0.0
 31
0.0
  0
LINE
  5
136
330
12F
100
AcDbEntity
  8
FORMAT
 62
     0
100
AcDbLine
 10
0.0
 20
5.0
 30
0.0
 11
0.0
 21
13.5
 31
0.0
  0
LINE
  5
137
330
12F
100
AcDbEntity
  8
FORMAT
 62
     0
100
AcDbLine
 10
-5.0
 20
0.0
 30
0.0
 11
-13.5
 21
0.0
 31
0.0
  0
LINE
  5
138
330
12F
100
AcDbEntity
  8
FORMAT
 62
     0
100
AcDbLine
 10
0.0
 20
-5.0
 30
0.0
 11
0.0
 21
-13.5
 31
0.0
  0
LINE
  5
139
330
12F
100
AcDbEntity
  8
FORMAT
 62
     0
100
AcDbLine
 10
5.0
 20
0.0
 30
0.0
 11
13.5
 21
0.0
 31
0.0
  0
ENDBLK
  5
131
330
12F
100
AcDbEntity
  8
0
100
AcDbBlockEnd
  0
ENDSEC
  0
SECTION
  2
ENTITIES
  0
CIRCLE
  5
83
330
1F
100
AcDbEntity
  8
0
  6
Continuous
 62
     7
370
    25
100
AcDbCircle
 10
-16.4438518419
 20
203.1909958732
 30
0.0
 40
12.00000000000001
  0
CIRCLE
  5
84
330
1F
100
AcDbEntity
  8
0
  6
Continuous
 62
     7
370
    25
100
AcDbCircle
 10
-16.4438518419
 20
28.1909958732
 30
0.0
 40
11.99999999999998
  0
CIRCLE
  5
85
330
1F
100
AcDbEntity
  8
0
  6
Continuous
 62
     7
370
    25
100
AcDbCircle
 10
135.1105938204
 20
-59.3090041268
 30
0.0
 40
12.00000000000003
  0
CIRCLE
  5
86
330
1F
100
AcDbEntity
  8
0
  6
Continuous
 62
     7
370
    25
100
AcDbCircle
 10
310.1105938204
 20
115.6909958732
 30
0.0
 40
11.99999999999994
  0
CIRCLE
  5
87
330
1F
100
AcDbEntity
  8
0
  6
Continuous
 62
     7
370
    25
100
AcDbCircle
 10
222.6105938204
 20
267.2454415355
 30
0.0
 40
11.99999999999997
  0
CIRCLE
  5
88
330
1F
100
AcDbEntity
  8
0
  6
Continuous
 62
     7
370
    25
100
AcDbCircle
 10
135.1105938204
 20
290.6909958732
 30
0.0
 40
12.0
  0
CIRCLE
  5
89
330
1F
100
AcDbEntity
  8
0
  6
Continuous
 62
     7
370
    25
100
AcDbCircle
 10
135.1105938204
 20
115.6909958732
 30
0.0
 40
196.5
  0
CIRCLE
  5
8A
330
1F
100
AcDbEntity
  8
0
  6
Continuous
 62
     7
370
    25
100
AcDbCircle
 10
135.1105938204
 20
115.6909958732
 30
0.0
 40
145.0
  0
CIRCLE
  5
8B
330
1F
100
AcDbEntity
  8
0
  6
Continuous
 62
     7
370
    25
100
AcDbCircle
 10
286.6650394827
 20
28.1909958732
 30
0.0
 40
12.00000000000006
  0
CIRCLE
  5
8C
330
1F
100
AcDbEntity
  8
0
  6
Continuous
 62
     7
370
    25
100
AcDbCircle
 10
286.6650394827
 20
203.1909958732
 30
0.0
 40
11.99999999999994
  0
CIRCLE
  5
8D
330
1F
100
AcDbEntity
  8
0
  6
Continuous
 62
     7
370
    25
100
AcDbCircle
 10
222.6105938204
 20
-35.8634497891
 30
0.0
 40
11.99999999999997
  0
CIRCLE
  5
8E
330
1F
100
AcDbEntity
  8
0
  6
Continuous
 62
     7
370
    25
100
AcDbCircle
 10
47.6105938204
 20
-35.8634497891
 30
0.0
 40
11.99999999999999
  0
CIRCLE
  5
8F
330
1F
100
AcDbEntity
  8
0
  6
Continuous
 62
     7
370
    25
100
AcDbCircle
 10
-39.8894061796
 20
115.6909958732
 30
0.0
 40
12.00000000000001
  0
CIRCLE
  5
90
330
1F
100
AcDbEntity
  8
0
  6
Continuous
 62
     7
370
    25
100
AcDbCircle
 10
47.6105938204
 20
267.2454415355
 30
0.0
 40
11.99999999999999
  0
CIRCLE
  5
91
330
1F
100
AcDbEntity
  8
0
  6
Continuous
 62
     7
370
    25
100
AcDbCircle
 10
286.6650394827
 20
203.1909958732
 30
0.0
 40
10.99999999999994
  0
CIRCLE
  5
92
330
1F
100
AcDbEntity
  8
0
  6
Continuous
 62
     7
370
    25
100
AcDbCircle
 10
286.6650394827
 20
28.1909958732
 30
0.0
 40
11.00000000000006
  0
CIRCLE
  5
93
330
1F
100
AcDbEntity
  8
0
  6
Continuous
 62
     7
370
    25
100
AcDbCircle
 10
135.1105938204
 20
115.6909958732
 30
0.0
 40
144.0
  0
CIRCLE
  5
94
330
1F
100
AcDbEntity
  8
0
  6
Continuous
 62
     7
370
    25
100
AcDbCircle
 10
135.1105938204
 20
115.6909958732
 30
0.0
 40
197.5
  0
CIRCLE
  5
95
330
1F
100
AcDbEntity
  8
0
  6
Continuous
 62
     7
370
    25
100
AcDbCircle
 10
135.1105938204
 20
290.6909958732
 30
0.0
 40
11.0
  0
CIRCLE
  5
96
330
1F
100
AcDbEntity
  8
0
  6
Continuous
 62
     7
370
    25
100
AcDbCircle
 10
222.6105938204
 20
267.2454415355
 30
0.0
 40
10.99999999999997
  0
CIRCLE
  5
97
330
1F
100
AcDbEntity
  8
0
  6
Continuous
 62
     7
370
    25
100
AcDbCircle
 10
310.1105938204
 20
115.6909958732
 30
0.0
 40
10.99999999999994
  0
CIRCLE
  5
98
330
1F
100
AcDbEntity
  8
0
  6
Continuous
 62
     7
370
    25
100
AcDbCircle
 10
47.6105938204
 20
267.2454415355
 30
0.0
 40
10.99999999999999
  0
CIRCLE
  5
99
330
1F
100
AcDbEntity
  8
0
  6
Continuous
 62
     7
370
    25
100
AcDbCircle
 10
-39.8894061796
 20
115.6909958732
 30
0.0
 40
11.00000000000001
  0
CIRCLE
  5
9A
330
1F
100
AcDbEntity
  8
0
  6
Continuous
 62
     7
370
    25
100
AcDbCircle
 10
47.6105938204
 20
-35.8634497891
 30
0.0
 40
10.99999999999998
  0
CIRCLE
  5
9B
330
1F
100
AcDbEntity
  8
0
  6
Continuous
 62
     7
370
    25
100
AcDbCircle
 10
222.6105938204
 20
-35.8634497891
 30
0.0
 40
10.99999999999997
  0
CIRCLE
  5
9C
330
1F
100
AcDbEntity
  8
0
  6
Continuous
 62
     7
370
    25
100
AcDbCircle
 10
135.1105938204
 20
-59.3090041268
 30
0.0
 40
11.00000000000003
  0
CIRCLE
  5
9D
330
1F
100
AcDbEntity
  8
0
  6
Continuous
 62
     7
370
    25
100
AcDbCircle
 10
-16.4438518419
 20
28.1909958732
 30
0.0
 40
10.99999999999998
  0
CIRCLE
  5
9E
330
1F
100
AcDbEntity
  8
0
  6
Continuous
 62
     7
370
    25
100
AcDbCircle
 10
-16.4438518419
 20
203.1909958732
 30
0.0
 40
11.00000000000001
  0
INSERT
  5
AA
330
1F
100
AcDbEntity
  8
FORMAT
 62
     7
100
AcDbBlockReference
  2
SW_CENTERMARKSYMBOL_0
 10
135.1105938204
 20
115.6909958732
 30
0.0
  0
INSERT
  5
B6
330
1F
100
AcDbEntity
  8
FORMAT
 62
     7
100
AcDbBlockReference
  2
SW_CENTERMARKSYMBOL_1
 10
135.1105938204
 20
290.6909958732
 30
0.0
  0
INSERT
  5
C2
330
1F
100
AcDbEntity
  8
FORMAT
 62
     7
100
AcDbBlockReference
  2
SW_CENTERMARKSYMBOL_2
 10
222.6105938204
 20
267.2454415355
 30
0.0
  0
INSERT
  5
CE
330
1F
100
AcDbEntity
  8
FORMAT
 62
     7
100
AcDbBlockReference
  2
SW_CENTERMARKSYMBOL_3
 10
286.6650394827
 20
203.1909958732
 30
0.0
  0
INSERT
  5
DA
330
1F
100
AcDbEntity
  8
FORMAT
 62
     7
100
AcDbBlockReference
  2
SW_CENTERMARKSYMBOL_4
 10
310.1105938204
 20
115.6909958732
 30
0.0
  0
INSERT
  5
E6
330
1F
100
AcDbEntity
  8
FORMAT
 62
     7
100
AcDbBlockReference
  2
SW_CENTERMARKSYMBOL_5
 10
47.6105938204
 20
-35.8634497891
 30
0.0
  0
INSERT
  5
F2
330
1F
100
AcDbEntity
  8
FORMAT
 62
     7
100
AcDbBlockReference
  2
SW_CENTERMARKSYMBOL_6
 10
135.1105938204
 20
-59.3090041268
 30
0.0
  0
INSERT
  5
FE
330
1F
100
AcDbEntity
  8
FORMAT
 62
     7
100
AcDbBlockReference
  2
SW_CENTERMARKSYMBOL_7
 10
222.6105938204
 20
-35.8634497891
 30
0.0
  0
INSERT
  5
10A
330
1F
100
AcDbEntity
  8
FORMAT
 62
     7
100
AcDbBlockReference
  2
SW_CENTERMARKSYMBOL_8
 10
286.6650394827
 20
28.1909958732
 30
0.0
  0
INSERT
  5
116
330
1F
100
AcDbEntity
  8
FORMAT
 62
     7
100
AcDbBlockReference
  2
SW_CENTERMARKSYMBOL_9
 10
47.6105938204
 20
267.2454415355
 30
0.0
  0
INSERT
  5
122
330
1F
100
AcDbEntity
  8
FORMAT
 62
     7
100
AcDbBlockReference
  2
SW_CENTERMARKSYMBOL_10
 10
-16.4438518419
 20
203.1909958732
 30
0.0
  0
INSERT
  5
12E
330
1F
100
AcDbEntity
  8
FORMAT
 62
     7
100
AcDbBlockReference
  2
SW_CENTERMARKSYMBOL_11
 10
-39.8894061796
 20
115.6909958732
 30
0.0
  0
INSERT
  5
13A
330
1F
100
AcDbEntity
  8
FORMAT
 62
     7
100
AcDbBlockReference
  2
SW_CENTERMARKSYMBOL_12
 10
-16.4438518419
 20
28.1909958732
 30
0.0
  0
LINE
  5
13B
330
1F
100
AcDbEntity
  8
0
  6
Continuous
 62
     7
370
    25
100
AcDbLine
 10
-309.074808894
 20
313.1909958732
 30
0.0
 11
-337.074808894
 21
313.1909958732
 31
0.0
  0
LINE
  5
13C
330
1F
100
AcDbEntity
  8
0
  6
Continuous
 62
     7
370
    25
100
AcDbLine
 10
-337.074808894
 20
-81.8090041268
 30
0.0
 11
-309.074808894
 21
-81.8090041268
 31
0.0
  0
ARC
  5
13D
330
1F
100
AcDbEntity
  8
0
  6
Continuous
 62
     7
370
    25
100
AcDbCircle
 10
-309.074808894
 20
-80.8090041268
 30
0.0
 40
1.0
100
AcDbArc
 50
270.0
 51
0.0
  0
ARC
  5
13E
330
1F
100
AcDbEntity
  8
0
  6
Continuous
 62
     7
370
    25
100
AcDbCircle
 10
-309.074808894
 20
312.1909958732
 30
0.0
 40
1.0
100
AcDbArc
 50
0.0
 51
90.0
  0
ARC
  5
13F
330
1F
100
AcDbEntity
  8
0
  6
Continuous
 62
     7
370
    25
100
AcDbCircle
 10
-337.074808894
 20
-80.8090041268
 30
0.0
 40
1.0
100
AcDbArc
 50
180.0
 51
270.0
  0
ARC
  5
140
330
1F
100
AcDbEntity
  8
0
  6
Continuous
 62
     7
370
    25
100
AcDbCircle
 10
-337.074808894
 20
312.1909958732
 30
0.0
 40
1.0
100
AcDbArc
 50
90.0
 51
180.0
  0
LINE
  5
141
330
1F
100
AcDbEntity
  8
0
  6
Continuous
 62
     7
370
    25
100
AcDbLine
 10
-308.074808894
 20
115.6909958732
 30
0.0
 11
-308.074808894
 21
-80.8090041268
 31
0.0
  0
LINE
  5
142
330
1F
100
AcDbEntity
  8
0
  6
Continuous
 62
     7
370
    25
100
AcDbLine
 10
-308.074808894
 20
312.1909958732
 30
0.0
 11
-308.074808894
 21
115.6909958732
 31
0.0
  0
LINE
  5
143
330
1F
100
AcDbEntity
  8
0
  6
Continuous
 62
     7
370
    25
100
AcDbLine
 10
-338.074808894
 20
115.6909958732
 30
0.0
 11
-338.074808894
 21
312.1909958732
 31
0.0
  0
LINE
  5
144
330
1F
100
AcDbEntity
  8
0
  6
Continuous
 62
     7
370
    25
100
AcDbLine
 10
-338.074808894
 20
-80.8090041268
 30
0.0
 11
-338.074808894
 21
115.6909958732
 31
0.0
  0
LINE
  5
145
330
1F
100
AcDbEntity
  8
0
  6
Continuous
 62
     1
370
    25
100
AcDbLine
 10
-337.074808894
 20
115.6909958732
 30
0.0
 11
-337.074808894
 21
-81.8090041268
 31
0.0
  0
LINE
  5
146
330
1F
100
AcDbEntity
  8
0
  6
Continuous
 62
     1
370
    25
100
AcDbLine
 10
-337.074808894
 20
313.1909958732
 30
0.0
 11
-337.074808894
 21
115.6909958732
 31
0.0
  0
LINE
  5
147
330
1F
100
AcDbEntity
  8
0
  6
Continuous
 62
     1
370
    25
100
AcDbLine
 10
-309.074808894
 20
115.6909958732
 30
0.0
 11
-309.074808894
 21
313.1909958732
 31
0.0
  0
LINE
  5
148
330
1F
100
AcDbEntity
  8
0
  6
Continuous
 62
     1
370
    25
100
AcDbLine
 10
-309.074808894
 20
-81.8090041268
 30
0.0
 11
-309.074808894
 21
115.6909958732
 31
0.0
  0
LINE
  5
149
330
1F
100
AcDbEntity
  8
0
  6
Continuous
 62
     7
370
    25
100
AcDbLine
 10
540.6321628235
 20
-81.8090041268
 30
0.0
 11
568.6321628235
 21
-81.8090041268
 31
0.0
  0
LINE
  5
14A
330
1F
100
AcDbEntity
  8
0
  6
Continuous
 62
     7
370
    25
100
AcDbLine
 10
568.6321628235
 20
313.1909958732
 30
0.0
 11
540.6321628235
 21
313.1909958732
 31
0.0
  0
ARC
  5
14B
330
1F
100
AcDbEntity
  8
0
  6
Continuous
 62
     7
370
    25
100
AcDbCircle
 10
540.6321628235
 20
312.1909958732
 30
0.0
 40
1.0
100
AcDbArc
 50
90.0
 51
180.0
  0
ARC
  5
14C
330
1F
100
AcDbEntity
  8
0
  6
Continuous
 62
     7
370
    25
100
AcDbCircle
 10
540.6321628235
 20
-80.8090041268
 30
0.0
 40
1.0
100
AcDbArc
 50
180.0
 51
270.0
  0
ARC
  5
14D
330
1F
100
AcDbEntity
  8
0
  6
Continuous
 62
     7
370
    25
100
AcDbCircle
 10
568.6321628235
 20
312.1909958732
 30
0.0
 40
1.0
100
AcDbArc
 50
0.0
 51
90.0
  0
ARC
  5
14E
330
1F
100
AcDbEntity
  8
0
  6
Continuous
 62
     7
370
    25
100
AcDbCircle
 10
568.6321628235
 20
-80.8090041268
 30
0.0
 40
1.0
100
AcDbArc
 50
270.0
 51
0.0
  0
LINE
  5
14F
330
1F
100
AcDbEntity
  8
0
  6
Continuous
 62
     7
370
    25
100
AcDbLine
 10
539.6321628235
 20
-80.8090041268
 30
0.0
 11
539.6321628235
 21
312.1909958732
 31
0.0
  0
LINE
  5
150
330
1F
100
AcDbEntity
  8
0
  6
Continuous
 62
     7
370
    25
100
AcDbLine
 10
569.6321628235
 20
312.1909958732
 30
0.0
 11
569.6321628235
 21
-80.8090041268
 31
0.0
  0
LINE
  5
151
330
1F
100
AcDbEntity
  8
0
  6
Continuous
 62
     1
370
    25
100
AcDbLine
 10
568.6321628235
 20
-81.8090041268
 30
0.0
 11
568.6321628235
 21
313.1909958732
 31
0.0
  0
LINE
  5
152
330
1F
100
AcDbEntity
  8
0
  6
Continuous
 62
     1
370
    25
100
AcDbLine
 10
540.6321628235
 20
313.1909958732
 30
0.0
 11
540.6321628235
 21
-81.8090041268
 31
0.0
  0
LINE
  5
153
330
1F
100
AcDbEntity
  8
0
  6
Continuous
 62
     7
370
    25
100
AcDbLine
 10
332.6105938204
 20
440.0959362844
 30
0.0
 11
332.6105938204
 21
468.0959362844
 31
0.0
  0
LINE
  5
154
330
1F
100
AcDbEntity
  8
0
  6
Continuous
 62
     7
370
    25
100
AcDbLine
 10
-62.3894061796
 20
468.0959362844
 30
0.0
 11
-62.3894061796
 21
440.0959362844
 31
0.0
  0
ARC
  5
155
330
1F
100
AcDbEntity
  8
0
  6
Continuous
 62
     7
370
    25
100
AcDbCircle
 10
-61.3894061796
 20
440.0959362844
 30
0.0
 40
1.0
100
AcDbArc
 50
180.0
 51
270.0
  0
ARC
  5
156
330
1F
100
AcDbEntity
  8
0
  6
Continuous
 62
     7
370
    25
100
AcDbCircle
 10
331.6105938204
 20
440.0959362844
 30
0.0
 40
1.0
100
AcDbArc
 50
270.0
 51
0.0
  0
ARC
  5
157
330
1F
100
AcDbEntity
  8
0
  6
Continuous
 62
     7
370
    25
100
AcDbCircle
 10
-61.3894061796
 20
468.0959362844
 30
0.0
 40
1.0
100
AcDbArc
 50
90.0
 51
180.0
  0
ARC
  5
158
330
1F
100
AcDbEntity
  8
0
  6
Continuous
 62
     7
370
    25
100
AcDbCircle
 10
331.6105938204
 20
468.0959362844
 30
0.0
 40
1.0
100
AcDbArc
 50
0.0
 51
90.0
  0
LINE
  5
159
330
1F
100
AcDbEntity
  8
0
  6
Continuous
 62
     7
370
    25
100
AcDbLine
 10
331.6105938204
 20
439.0959362844
 30
0.0
 11
-61.3894061773
 21
439.0959362844
 31
0.0
  0
LINE
  5
15A
330
1F
100
AcDbEntity
  8
0
  6
Continuous
 62
     7
370
    25
100
AcDbLine
 10
331.6105938204
 20
469.0959362844
 30
0.0
 11
-61.3894061796
 21
469.0959362844
 31
0.0
  0
LINE
  5
15B
330
1F
100
AcDbEntity
  8
0
  6
Continuous
 62
     1
370
    25
100
AcDbLine
 10
332.6105938204
 20
468.0959362844
 30
0.0
 11
-62.3894061796
 21
468.0959362844
 31
0.0
  0
LINE
  5
15C
330
1F
100
AcDbEntity
  8
0
  6
Continuous
 62
     1
370
    25
100
AcDbLine
 10
-62.3894061796
 20
440.0959362844
 30
0.0
 11
332.6105938204
 21
440.0959362844
 31
0.0
  0
LINE
  5
15D
330
1F
100
AcDbEntity
  8
0
  6
Continuous
 62
     7
370
    25
100
AcDbLine
 10
-62.3894061796
 20
-345.4733172361
 30
0.0
 11
-62.3894061796
 21
-373.4733172361
 31
0.0
  0
LINE
  5
15E
330
1F
100
AcDbEntity
  8
0
  6
Continuous
 62
     7
370
    25
100
AcDbLine
 10
332.6105938204
 20
-373.4733172361
 30
0.0
 11
332.6105938204
 21
-345.4733172361
 31
0.0
  0
ARC
  5
15F
330
1F
100
AcDbEntity
  8
0
  6
Continuous
 62
     7
370
    25
100
AcDbCircle
 10
331.6105938204
 20
-345.4733172361
 30
0.0
 40
1.0
100
AcDbArc
 50
0.0
 51
90.0
  0
ARC
  5
160
330
1F
100
AcDbEntity
  8
0
  6
Continuous
 62
     7
370
    25
100
AcDbCircle
 10
-61.3894061796
 20
-345.4733172361
 30
0.0
 40
1.0
100
AcDbArc
 50
90.0
 51
180.0
  0
ARC
  5
161
330
1F
100
AcDbEntity
  8
0
  6
Continuous
 62
     7
370
    25
100
AcDbCircle
 10
331.6105938204
 20
-373.4733172361
 30
0.0
 40
1.0
100
AcDbArc
 50
270.0
 51
0.0
  0
ARC
  5
162
330
1F
100
AcDbEntity
  8
0
  6
Continuous
 62
     7
370
    25
100
AcDbCircle
 10
-61.3894061796
 20
-373.4733172361
 30
0.0
 40
1.0
100
AcDbArc
 50
180.0
 51
270.0
  0
LINE
  5
163
330
1F
100
AcDbEntity
  8
0
  6
Continuous
 62
     7
370
    25
100
AcDbLine
 10
331.6105938204
 20
-344.4733172361
 30
0.0
 11
-61.3894061796
 21
-344.4733172361
 31
0.0
  0
LINE
  5
164
330
1F
100
AcDbEntity
  8
0
  6
Continuous
 62
     7
370
    25
100
AcDbLine
 10
331.6105938204
 20
-374.4733172361
 30
0.0
 11
-61.3894061773
 21
-374.4733172361
 31
0.0
  0
LINE
  5
165
330
1F
100
AcDbEntity
  8
0
  6
Continuous
 62
     1
370
    25
100
AcDbLine
 10
-62.3894061796
 20
-373.4733172361
 30
0.0
 11
332.6105938204
 21
-373.4733172361
 31
0.0
  0
LINE
  5
166
330
1F
100
AcDbEntity
  8
0
  6
Continuous
 62
     1
370
    25
100
AcDbLine
 10
332.6105938204
 20
-345.4733172361
 30
0.0
 11
-62.3894061796
 21
-345.4733172361
 31
0.0
  0
SPLINE
  5
167
330
1F
100
AcDbEntity
  8
0
  6
Continuous
 62
     7
370
    25
100
AcDbSpline
210
0.0
220
0.0
230
1.0
 70
     8
 71
     3
 72
    73
 73
    69
 74
     0
 42
0.00000001
 43
0.00000001
 40
0.0
 40
0.0
 40
0.0
 40
0.0
 40
0.0024780810520007
 40
0.0178009334598087
 40
0.0331323773493765
 40
0.0484719160098489
 40
0.0638187699468301
 40
0.0791719900864833
 40
0.094530556471594
 40
0.109893455746227
 40
0.1252597358932995
 40
0.1406285401921698
 40
0.1559991242049976
 40
0.1713708601458259
 40
0.186743232703332
 40
0.2021158065489069
 40
0.2174881947098206
 40
0.2328601780214717
 40
0.2482315991620015
 40
0.2636023515684813
 40
0.2789723697345758
 40
0.2943416209305871
 40
0.3097100982804533
 40
0.3250778150687111
 40
0.3404448001243756
 40
0.3558110941245282
 40
0.371176746668731
 40
0.386541813990049
 40
0.4019063571855575
 40
0.4172704408663507
 40
0.4326341321430175
 40
0.4479974998766377
 40
0.4633606141373312
 40
0.4787235458223427
 40
0.494086366393589
 40
0.5094491477007608
 40
0.524811959008304
 40
0.5401748514040746
 40
0.5555378972997194
 40
0.5709011691315412
 40
0.5862647392238587
 40
0.60162867959094
 40
0.6169930616438488
 40
0.6323579557662001
 40
0.647723430716079
 40
0.6630895528026111
 40
0.6784563847749393
 40
0.69382398434834
 40
0.7091924022771817
 40
0.7245616798673746
 40
0.7399318458029248
 40
0.7553029121434275
 40
0.7706748693346305
 40
0.7860476800668822
 40
0.8014212718233084
 40
0.8167955279912259
 40
0.8321702774816194
 40
0.8475452810214378
 40
0.8629200997126202
 40
0.8782942911356711
 40
0.8936673037096987
 40
0.9090384674806998
 40
0.9244069907800094
 40
0.9397719663705592
 40
0.9551323913920222
 40
0.9704872055928249
 40
0.9858353515620809
 40
1.0
 40
1.0
 40
1.0
 40
1.0
 10
675.5234583029504
 20
-124.6026552680675
 30
0.0
 10
675.2629113359397
 20
-124.5752075873217
 30
0.0
 10
673.3913102358999
 20
-124.3780411797952
 30
0.0
 10
669.8032522817422
 20
-124.2894353907175
 30
0.0
 10
664.7618444009513
 20
-124.3549502616353
 30
0.0
 10
659.616760845009
 20
-124.7366635372768
 30
0.0
 10
654.3893567159223
 20
-125.3998304321785
 30
0.0
 10
649.0846528267253
 20
-126.3526391190804
 30
0.0
 10
643.7122346573265
 20
-127.5911207219615
 30
0.0
 10
638.2806081258462
 20
-129.1139280299693
 30
0.0
 10
632.798677329823
 20
-130.9183857536428
 30
0.0
 10
627.2753182721427
 20
-133.0015656985697
 30
0.0
 10
621.7194682704629
 20
-135.3600162503604
 30
0.0
 10
616.1400814889552
 20
-137.9898526070718
 30
0.0
 10
610.5461264076623
 20
-140.8867480673676
 30
0.0
 10
604.9465773660028
 20
-144.0459481242841
 30
0.0
 10
599.3503934225595
 20
-147.4622850341417
 30
0.0
 10
593.7665052491186
 20
-151.1301914937187
 30
0.0
 10
588.203799998586
 20
-155.0437158035083
 30
0.0
 10
582.6711218874984
 20
-159.1965252734036
 30
0.0
 10
577.1772610141545
 20
-163.5819160953717
 30
0.0
 10
571.7309417753174
 20
-168.1928234751413
 30
0.0
 10
566.3408109300677
 20
-173.021832134651
 30
0.0
 10
561.0154253732964
 20
-178.0611872770834
 30
0.0
 10
555.7632396936871
 20
-183.3028060709585
 30
0.0
 10
550.5925935929544
 20
-188.738289686073
 30
0.0
 10
545.5116992409876
 20
-194.358935894501
 30
0.0
 10
540.5286286366406
 20
-200.1557522354627
 30
0.0
 10
535.6513010379211
 20
-206.1194697321925
 30
0.0
 10
530.8874705190584
 20
-212.2405571412721
 30
0.0
 10
526.2447137059213
 20
-218.5092357094655
 30
0.0
 10
521.7304177357806
 20
-224.9154944092994
 30
0.0
 10
517.3517684825703
 20
-231.449105622014
 30
0.0
 10
513.1157390846141
 20
-238.0996412346495
 30
0.0
 10
509.0290788081796
 20
-244.8564891167937
 30
0.0
 10
505.0983025205504
 20
-251.7088695171611
 30
0.0
 10
501.3296817589555
 20
-258.6458494013926
 30
0.0
 10
497.7292326856414
 20
-265.6563629011854
 30
0.0
 10
494.3027063338114
 20
-272.7292294775155
 30
0.0
 10
491.0555784074969
 20
-279.8531746942652
 30
0.0
 10
487.9930424542219
 20
-287.0168450133133
 30
0.0
 10
485.1200018075154
 20
-294.2088258936197
 30
0.0
 10
482.4410620489385
 20
-301.4176599612854
 30
0.0
 10
479.960524004897
 20
-308.6318652038114
 30
0.0
 10
477.6823772903708
 20
-315.8399531400029
 30
0.0
 10
475.6102944084605
 20
-323.0304469136934
 30
0.0
 10
473.7476254103365
 20
-330.1918992559022
 30
0.0
 10
472.097393114582
 20
-337.3129102560922
 30
0.0
 10
470.6622888775576
 20
-344.3821448790458
 30
0.0
 10
469.4446688968122
 20
-351.388350159858
 30
0.0
 10
468.446551017064
 20
-358.320372006234
 30
0.0
 10
467.669611992541
 20
-365.1671715352596
 30
0.0
 10
467.1151851388432
 20
-371.9178408736531
 30
0.0
 10
466.7842582857368
 20
-378.5616183532118
 30
0.0
 10
466.6774719038864
 20
-385.0879030579914
 30
0.0
 10
466.7951172828036
 20
-391.4862686607536
 30
0.0
 10
467.1371344545657
 20
-397.7464764280047
 30
0.0
 10
467.7031085483028
 20
-403.8584715843429
 30
0.0
 10
468.4922641679825
 20
-409.8124103672924
 30
0.0
 10
469.5034641896625
 20
-415.5986686173986
 30
0.0
 10
470.7351952762614
 20
-421.2078842892878
 30
0.0
 10
472.1856088675809
 20
-426.6309008748151
 30
0.0
 10
473.8523355224958
 20
-431.8589999843826
 30
0.0
 10
475.7331467219312
 20
-436.8831106041256
 30
0.0
 10
477.8234558544242
 20
-441.6968492747534
 30
0.0
 10
480.1256164251423
 20
-446.2852859138204
 30
0.0
 10
482.5506763228178
 20
-450.5550712648458
 30
0.0
 10
484.3085912343097
 20
-453.1729644685732
 30
0.0
 10
485.1523014693191
 20
-454.4294207826457
 30
0.0
  0
LINE
  5
168
330
1F
100
AcDbEntity
  8
0
  6
Continuous
 62
     7
370
    25
100
AcDbLine
 10
725.2022588529
 20
-145.0831518531
 30
0.0
 11
705.4032689797
 21
-133.6534382876
 31
0.0
  0
LINE
  5
169
330
1F
100
AcDbEntity
  8
0
  6
Continuous
 62
     7
370
    25
100
AcDbLine
 10
507.919319284
 20
-475.7427389279
 30
0.0
 11
527.7183091573
 21
-487.1724524935
 31
0.0
  0
SPLINE
  5
16A
330
1F
100
AcDbEntity
  8
0
  6
Continuous
 62
     7
370
    25
100
AcDbSpline
210
0.0
220
0.0
230
1.0
 70
     8
 71
     3
 72
    60
 73
    56
 74
     0
 42
0.00000001
 43
0.00000001
 40
0.0
 40
0.0
 40
0.0
 40
0.0
 40
0.0124864304105642
 40
0.0316227735477918
 40
0.0507695879180565
 40
0.0699260593328767
 40
0.0890910923488149
 40
0.1082634441038094
 40
0.1274418349567324
 40
0.1466250310049101
 40
0.1658118990140346
 40
0.1850014375982659
 40
0.2041927899105908
 40
0.2233852431976199
 40
0.2425782199056055
 40
0.2617711757782004
 40
0.2809637530149931
 40
0.3001557182522496
 40
0.3193469082451767
 40
0.3385372168696132
 40
0.3577265838956428
 40
0.3769149855095941
 40
0.3961024264576712
 40
0.4152889336321117
 40
0.4344745509036886
 40
0.4536593350079521
 40
0.4728433523079172
 40
0.4920266762760329
 40
0.511209385559989
 40
0.5303915625176949
 40
0.5495732921255875
 40
0.56875466118069
 40
0.5879357577305846
 40
0.6071166706765615
 40
0.6262974895040154
 40
0.6454783041007606
 40
0.6646591861121719
 40
0.683840214361137
 40
0.7030214792881606
 40
0.7222030712871695
 40
0.7413850805014642
 40
0.7605675965224982
 40
0.779750707948473
 40
0.7989345017539105
 40
0.818119062411665
 40
0.8373044706967692
 40
0.8564908020865988
 40
0.8756781246544045
 40
0.8948664963330962
 40
0.9140559614041425
 40
0.9332465460437505
 40
0.9524382527377023
 40
0.9716310533615864
 40
0.9908248807216193
 40
1.0
 40
1.0
 40
1.0
 40
1.0
 10
557.6360566294875
 20
-496.2127513098656
 30
0.0
 10
558.6969520966168
 20
-496.2990020601016
 30
0.0
 10
561.3837453603286
 20
-496.5174382226683
 30
0.0
 10
565.8162940486175
 20
-496.5389868075113
 30
0.0
 10
570.9099315382742
 20
-496.3173070372071
 30
0.0
 10
576.0971629453736
 20
-495.7950375281896
 30
0.0
 10
581.3640937353588
 20
-494.9876099717188
 30
0.0
 10
586.7036052773744
 20
-493.8923364799428
 30
0.0
 10
592.1065979607557
 20
-492.5120299619494
 30
0.0
 10
597.564377347466
 20
-490.8486606899818
 30
0.0
 10
603.0680473056751
 20
-488.9050422363788
 30
0.0
 10
608.6087001099964
 20
-486.6843623008493
 30
0.0
 10
614.1773880436314
 20
-484.1902906234125
 30
0.0
 10
619.7651497533477
 20
-481.4269326671003
 30
0.0
 10
625.3630106614196
 20
-478.3988302880454
 30
0.0
 10
630.9620027568101
 20
-475.1109451602553
 30
0.0
 10
636.5531784670358
 20
-471.5686463181283
 30
0.0
 10
642.1276293153641
 20
-467.7776927030836
 30
0.0
 10
647.6764881518249
 20
-463.7442269139895
 30
0.0
 10
653.1909362786693
 20
-459.4747676466964
 30
0.0
 10
658.6622148355
 20
-454.9761997108326
 30
0.0
 10
664.0816365651591
 20
-450.2557637266692
 30
0.0
 10
669.4405979033156
 20
-445.3210454013716
 30
0.0
 10
674.7305913218632
 20
-440.17996431103
 30
0.0
 10
679.9432178495588
 20
-434.8407621445787
 30
0.0
 10
685.0701996937601
 20
-429.3119903871986
 30
0.0
 10
690.1033928908269
 20
-423.6024974377048
 30
0.0
 10
695.0347999183582
 20
-417.7214151668449
 30
0.0
 10
699.8565822086364
 20
-411.6781449325219
 30
0.0
 10
704.5610725088478
 20
-405.4823430744152
 30
0.0
 10
709.1407870394074
 20
-399.1439059150244
 30
0.0
 10
713.5884374068883
 20
-392.6729542973159
 30
0.0
 10
717.8969422325587
 20
-386.0798176913611
 30
0.0
 10
722.0594384614528
 20
-379.3750179038249
 30
0.0
 10
726.0692923200421
 20
-372.569252425615
 30
0.0
 10
729.920108654835
 20
-365.6733796717913
 30
0.0
 10
733.6057418432305
 20
-358.6984010061345
 30
0.0
 10
737.1203064542292
 20
-351.655441830107
 30
0.0
 10
740.4581875570797
 20
-344.5557314623519
 30
0.0
 10
743.6140488784968
 20
-337.4105859755549
 30
0.0
 10
746.5828403763792
 20
-330.2313915458809
 30
0.0
 10
749.3598060436725
 20
-323.0295863111537
 30
0.0
 10
751.9404911706711
 20
-315.8166421894025
 30
0.0
 10
754.3207491188025
 20
-308.6040466660087
 30
0.0
 10
756.4967473460267
 20
-301.4032847462956
 30
0.0
 10
758.4649736071717
 20
-294.2258205795421
 30
0.0
 10
760.2222388553911
 20
-287.0830808554119
 30
0.0
 10
761.7656898071025
 20
-279.9864324065246
 30
0.0
 10
763.0927828199023
 20
-272.9471825517104
 30
0.0
 10
764.2013996162611
 20
-265.9764959928271
 30
0.0
 10
765.0894311654293
 20
-259.085624924861
 30
0.0
 10
765.7563443735424
 20
-252.2849722189571
 30
0.0
 10
766.197346256011
 20
-245.5875124548592
 30
0.0
 10
766.3855313462433
 20
-240.1429351402244
 30
0.0
 10
766.4015770025305
 20
-236.9487669527389
 30
0.0
 10
766.4067665082324
 20
-235.9157051866842
 30
0.0
  0
SPLINE
  5
16B
330
1F
100
AcDbEntity
  8
0
  6
Continuous
 62
     7
370
    25
100
AcDbSpline
210
0.0
220
0.0
230
1.0
 70
     8
 71
     3
 72
    21
 73
    17
 74
     0
 42
0.00000001
 43
0.00000001
 40
0.0
 40
0.0
 40
0.0
 40
0.0
 40
0.0407126808388334
 40
0.1180496285440766
 40
0.1953929001598234
 40
0.2727364105361328
 40
0.3500779384653102
 40
0.4274149896287958
 40
0.5047444946022341
 40
0.5820627753170752
 40
0.6593655496839231
 40
0.7366479945190166
 40
0.8139048893526519
 40
0.8911308624952929
 40
0.9683207534871371
 40
1.0
 40
1.0
 40
1.0
 40
1.0
 10
766.4067665082324
 20
-235.9157051866842
 30
0.0
 10
766.4005109349886
 20
-234.78481625498
 30
0.0
 10
766.3823724070769
 20
-231.5057146197724
 30
0.0
 10
766.1808388104415
 20
-226.179020778079
 30
0.0
 10
765.7286955408451
 20
-219.9907832522161
 30
0.0
 10
765.0498852649648
 20
-213.9572996763031
 30
0.0
 10
764.1492365708691
 20
-208.0862794635453
 30
0.0
 10
763.0270317357521
 20
-202.3878009808617
 30
0.0
 10
761.6852610057762
 20
-196.870932206611
 30
0.0
 10
760.1258394509339
 20
-191.544798582075
 30
0.0
 10
758.3515323776674
 20
-186.4177435782132
 30
0.0
 10
756.3640770182086
 20
-181.4995219276895
 30
0.0
 10
754.17080385444
 20
-176.7932488872816
 30
0.0
 10
751.7600671283756
 20
-172.3252533834145
 30
0.0
 10
749.69694991523
 20
-168.8763220218287
 30
0.0
 10
748.3685940628218
 20
-167.0044583561989
 30
0.0
 10
747.982062916624
 20
-166.459774785987
 30
0.0
  0
SPLINE
  5
16C
330
1F
100
AcDbEntity
  8
0
  6
Continuous
 62
     7
370
    25
100
AcDbSpline
210
0.0
220
0.0
230
1.0
 70
     8
 71
     3
 72
    20
 73
    16
 74
     0
 42
0.00000001
 43
0.00000001
 40
0.0
 40
0.0
 40
0.0
 40
0.0
 40
0.0166481805296819
 40
0.1006799056749119
 40
0.1846321499966002
 40
0.2685091542500347
 40
0.3523191308301183
 40
0.4360724399212132
 40
0.5197800917983662
 40
0.6034526824983639
 40
0.6870997445736725
 40
0.770729431761465
 40
0.8543484398757012
 40
0.9379620757859233
 40
1.0
 40
1.0
 40
1.0
 40
1.0
 10
692.7793654905312
 20
-192.3583474284613
 30
0.0
 10
692.9498209295677
 20
-192.5625031419175
 30
0.0
 10
693.9806505444542
 20
-193.7971352350241
 30
0.0
 10
695.689087714583
 20
-196.3036391809895
 30
0.0
 10
697.8875729308469
 20
-199.8809002060462
 30
0.0
 10
699.8702277765613
 20
-203.7088465623493
 30
0.0
 10
701.6535922998529
 20
-207.7514075799972
 30
0.0
 10
703.2284596083992
 20
-212.0073060234653
 30
0.0
 10
704.5929771659704
 20
-216.4654682058573
 30
0.0
 10
705.7439174395877
 20
-221.1168562724376
 30
0.0
 10
706.6785254781622
 20
-225.9515758470178
 30
0.0
 10
707.3959110909125
 20
-230.9585674487663
 30
0.0
 10
707.8897387217269
 20
-236.1297303928703
 30
0.0
 10
708.151550340586
 20
-240.9867515013345
 30
0.0
 10
708.1797613718273
 20
-244.157830664691
 30
0.0
 10
708.1917774039019
 20
-245.5085005006012
 30
0.0
  0
SPLINE
  5
16D
330
1F
100
AcDbEntity
  8
0
  6
Continuous
 62
     7
370
    25
100
AcDbSpline
210
0.0
220
0.0
230
1.0
 70
     8
 71
     3
 72
    53
 73
    49
 74
     0
 42
0.00000001
 43
0.00000001
 40
0.0
 40
0.0
 40
0.0
 40
0.0
 40
0.011588783590476
 40
0.0336277062632546
 40
0.0556693587949735
 40
0.0777123808725118
 40
0.0997570119170779
 40
0.1218033764404866
 40
0.1438515110809948
 40
0.1659013864822302
 40
0.1879529244548554
 40
0.210006011221012
 40
0.2320605074816777
 40
0.254116255953063
 40
0.2761730869159522
 40
0.2982308222250492
 40
0.3202892781401306
 40
0.3423482672696798
 40
0.3644075998604491
 40
0.3864670846221496
 40
0.4085265156913382
 40
0.4305856494721615
 40
0.452644292710125
 40
0.4747022522912448
 40
0.4967593358778971
 40
0.5188153529354159
 40
0.5408701163131742
 40
0.5629234445920599
 40
0.5849751654616765
 40
0.6070251204560171
 40
0.6290731714563653
 40
0.651119209463992
 40
0.6731631662493248
 40
0.6952050295892684
 40
0.7172448628918991
 40
0.7392828300447483
 40
0.7613192262528076
 40
0.7833545153660392
 40
0.8053893729433715
 40
0.8274243963195175
 40
0.8494607275331467
 40
0.8714998537076917
 40
0.8935436462906934
 40
0.9155943768873431
 40
0.9376546906966208
 40
0.9597275135959739
 40
0.981815867187694
 40
1.0
 40
1.0
 40
1.0
 40
1.0
 10
708.1917774039019
 20
-245.5085005006012
 30
0.0
 10
708.1856014479357
 20
-246.4742551877124
 30
0.0
 10
708.1676803925031
 20
-249.2766299742453
 30
0.0
 10
707.9684126632957
 20
-254.0118109190355
 30
0.0
 10
707.5212073731794
 20
-259.7409558294866
 30
0.0
 10
706.8500438156968
 20
-265.5713004120805
 30
0.0
 10
705.9600899265024
 20
-271.4875746233869
 30
0.0
 10
704.8521549986972
 20
-277.4773856744639
 30
0.0
 10
703.528837328903
 20
-283.527380127022
 30
0.0
 10
701.9928743894727
 20
-289.6242736171666
 30
0.0
 10
700.247577263139
 20
-295.7546162890881
 30
0.0
 10
698.2967047248768
 20
-301.9048965112242
 30
0.0
 10
696.144485908803
 20
-308.0615534160587
 30
0.0
 10
693.7956017550357
 20
-314.211013373979
 30
0.0
 10
691.2551762333561
 20
-320.3397195799279
 30
0.0
 10
688.5287637777611
 20
-326.4341630325969
 30
0.0
 10
685.6223366438527
 20
-332.4809126982416
 30
0.0
 10
682.5422712544735
 20
-338.4666454511784
 30
0.0
 10
679.2953338329454
 20
-344.3781756227814
 30
0.0
 10
675.8886659828257
 20
-350.202482993222
 30
0.0
 10
672.3297710298916
 20
-355.9267384867917
 30
0.0
 10
668.6264952659386
 20
-361.5383373478843
 30
0.0
 10
664.7870098358186
 20
-367.0249283245525
 30
0.0
 10
660.8197903625203
 20
-372.3744439634451
 30
0.0
 10
656.7336012130603
 20
-377.5751231914887
 30
0.0
 10
652.5374764249552
 20
-382.6155377512836
 30
0.0
 10
648.2407000167782
 20
-387.4846180886597
 30
0.0
 10
643.8527856786726
 20
-392.1716786638564
 30
0.0
 10
639.3834558255338
 20
-396.6664426585258
 30
0.0
 10
634.842619980109
 20
-400.9590660470049
 30
0.0
 10
630.2403524336684
 20
-405.0401609928243
 30
0.0
 10
625.5868691085357
 20
-408.9008185169504
 30
0.0
 10
620.8925035193056
 20
-412.5326303618255
 30
0.0
 10
616.1676817028828
 20
-415.92770993331
 30
0.0
 10
611.4228959534366
 20
-419.0787121641953
 30
0.0
 10
606.668677207619
 20
-421.9788519981752
 30
0.0
 10
601.9155658254061
 20
-424.6219213263176
 30
0.0
 10
597.174080978925
 20
-427.0023031394111
 30
0.0
 10
592.4547116403971
 20
-429.1149740986296
 30
0.0
 10
587.767867688581
 20
-430.9555205640953
 30
0.0
 10
583.1238350208913
 20
-432.5201673258027
 30
0.0
 10
578.5327522800842
 20
-433.8056965150536
 30
0.0
 10
574.0044599074027
 20
-434.8097520072849
 30
0.0
 10
569.5489657380268
 20
-435.5296272377532
 30
0.0
 10
565.1745610573208
 20
-435.9667098430269
 30
0.0
 10
560.8947466931427
 20
-436.1097672780748
 30
0.0
 10
556.9504681985329
 20
-436.0039050136166
 30
0.0
 10
554.4910330853776
 20
-435.7140489691834
 30
0.0
 10
553.3805306373243
 20
-435.5831710105804
 30
0.0
  0
SPLINE
  5
16E
330
1F
100
AcDbEntity
  8
0
  6
Continuous
 62
     7
370
    25
100
AcDbSpline
210
0.0
220
0.0
230
1.0
 70
     8
 71
     3
 72
    13
 73
     9
 74
     0
 42
0.00000001
 43
0.00000001
 40
0.0
 40
0.0
 40
0.0
 40
0.0
 40
0.0301718316562262
 40
0.2730495324890742
 40
0.4848307094693821
 40
0.7100393803268737
 40
0.9297739421877346
 40
1.0
 40
1.0
 40
1.0
 40
1.0
 10
719.4325850938532
 20
-304.8371712699765
 30
0.0
 10
719.4689716475267
 20
-304.8542999010977
 30
0.0
 10
719.7982632723327
 20
-305.0093108654005
 30
0.0
 10
720.2504448266907
 20
-305.5207475928152
 30
0.0
 10
720.8015464085665
 20
-306.4131040692572
 30
0.0
 10
721.1611613607002
 20
-307.5407081169819
 30
0.0
 10
721.3003970282443
 20
-308.5850143762649
 30
0.0
 10
721.3095379076499
 20
-309.2264670478082
 30
0.0
 10
721.3117517528483
 20
-309.3818215661093
 30
0.0
  0
SPLINE
  5
16F
330
1F
100
AcDbEntity
  8
0
  6
Continuous
 62
     7
370
    25
100
AcDbSpline
210
0.0
220
0.0
230
1.0
 70
     8
 71
     3
 72
    22
 73
    18
 74
     0
 42
0.00000001
 43
0.00000001
 40
0.0
 40
0.0
 40
0.0
 40
0.0
 40
0.0362934660826161
 40
0.1059968498303411
 40
0.1759513347607058
 40
0.2461213226811247
 40
0.3164540845392621
 40
0.386864562004565
 40
0.4572511292761193
 40
0.5274906044540789
 40
0.5974864248553865
 40
0.667157627245468
 40
0.7364816323994486
 40
0.8056017084958218
 40
0.8748537277511642
 40
0.9452202796697987
 40
1.0
 40
1.0
 40
1.0
 40
1.0
 10
721.3117517528483
 20
-309.3818215661093
 30
0.0
 10
721.3061067069675
 20
-309.6394169477911
 30
0.0
 10
721.2896200732812
 20
-310.3917369088267
 30
0.0
 10
721.1028623232957
 20
-311.7385111572945
 30
0.0
 10
720.6819984891152
 20
-313.4093265536913
 30
0.0
 10
720.0578560073051
 20
-315.1103313453025
 30
0.0
 10
719.2500795327198
 20
-316.7877363179032
 30
0.0
 10
718.2805198067882
 20
-318.3920291879899
 30
0.0
 10
717.1784639477041
 20
-319.8748386091545
 30
0.0
 10
715.9781604339714
 20
-321.1922036593018
 30
0.0
 10
714.7182825607294
 20
-322.3059537694986
 30
0.0
 10
713.440398271873
 20
-323.1859583344879
 30
0.0
 10
712.1881204465026
 20
-323.8109083418763
 30
0.0
 10
711.0028378700134
 20
-324.1740908692744
 30
0.0
 10
709.9269055617618
 20
-324.2701438829768
 30
0.0
 10
709.0438681308375
 20
-324.1592400342792
 30
0.0
 10
708.585546417801
 20
-323.915886083558
 30
0.0
 10
708.3849272957908
 20
-323.8093638426457
 30
0.0
  0
SPLINE
  5
170
330
1F
100
AcDbEntity
  8
0
  6
Continuous
 62
     7
370
    25
100
AcDbSpline
210
0.0
220
0.0
230
1.0
 70
     8
 71
     3
 72
    13
 73
     9
 74
     0
 42
0.00000001
 43
0.00000001
 40
0.0
 40
0.0
 40
0.0
 40
0.0
 40
0.0301718316562775
 40
0.2730495324891306
 40
0.4848307094694472
 40
0.7100393803269546
 40
0.9297739421878067
 40
0.9999999999999999
 40
0.9999999999999999
 40
0.9999999999999999
 40
0.9999999999999999
 10
674.1392522009044
 20
-383.2875248544431
 30
0.0
 10
674.1756387545779
 20
-383.3046534855642
 30
0.0
 10
674.5049303793838
 20
-383.4596644498671
 30
0.0
 10
674.957111933742
 20
-383.9711011772819
 30
0.0
 10
675.5082135156176
 20
-384.8634576537241
 30
0.0
 10
675.8678284677515
 20
-385.9910617014488
 30
0.0
 10
676.0070641352954
 20
-387.0353679607318
 30
0.0
 10
676.016205014701
 20
-387.6768206322748
 30
0.0
 10
676.0184188598994
 20
-387.8321751505758
 30
0.0
  0
SPLINE
  5
171
330
1F
100
AcDbEntity
  8
0
  6
Continuous
 62
     7
370
    25
100
AcDbSpline
210
0.0
220
0.0
230
1.0
 70
     8
 71
     3
 72
    22
 73
    18
 74
     0
 42
0.00000001
 43
0.00000001
 40
0.0
 40
0.0
 40
0.0
 40
0.0
 40
0.0362934660826154
 40
0.1059968498303067
 40
0.1759513347606803
 40
0.2461213226811056
 40
0.3164540845392406
 40
0.3868645620045483
 40
0.4572511292761051
 40
0.5274906044540627
 40
0.5974864248553673
 40
0.6671576272454491
 40
0.7364816323994302
 40
0.8056017084958074
 40
0.8748537277511499
 40
0.9452202796697898
 40
0.9999999999999999
 40
0.9999999999999999
 40
0.9999999999999999
 40
0.9999999999999999
 10
676.0184188598994
 20
-387.8321751505758
 30
0.0
 10
676.0127738140186
 20
-388.0897705322577
 30
0.0
 10
675.9962871803323
 20
-388.842090493293
 30
0.0
 10
675.8095294303467
 20
-390.1888647417606
 30
0.0
 10
675.3886655961666
 20
-391.8596801381573
 30
0.0
 10
674.7645231143564
 20
-393.5606849297686
 30
0.0
 10
673.9567466397712
 20
-395.2380899023694
 30
0.0
 10
672.9871869138395
 20
-396.8423827724561
 30
0.0
 10
671.8851310547553
 20
-398.3251921936209
 30
0.0
 10
670.6848275410227
 20
-399.6425572437681
 30
0.0
 10
669.4249496677808
 20
-400.756307353965
 30
0.0
 10
668.1470653789244
 20
-401.6363119189543
 30
0.0
 10
666.894787553554
 20
-402.2612619263426
 30
0.0
 10
665.7095049770647
 20
-402.6244444537409
 30
0.0
 10
664.6335726688129
 20
-402.7204974674433
 30
0.0
 10
663.7505352378886
 20
-402.6095936187457
 30
0.0
 10
663.2922135248521
 20
-402.3662396680245
 30
0.0
 10
663.0915944028419
 20
-402.2597174271123
 30
0.0
  0
SPLINE
  5
172
330
1F
100
AcDbEntity
  8
0
  6
Continuous
 62
     7
370
    25
100
AcDbSpline
210
0.0
220
0.0
230
1.0
 70
     8
 71
     3
 72
    66
 73
    62
 74
     0
 42
0.00000001
 43
0.00000001
 40
0.0
 40
0.0
 40
0.0
 40
0.0
 40
0.0031512848993262
 40
0.020620634973945
 40
0.0380735154344313
 40
0.0555109416170288
 40
0.0729347016931547
 40
0.0903469839600358
 40
0.1077500769227371
 40
0.1251461601814703
 40
0.1425371798655906
 40
0.1599247908154264
 40
0.1773103452367129
 40
0.1946949099877774
 40
0.212079235812576
 40
0.2294638060080628
 40
0.2468490981909027
 40
0.2642354367680852
 40
0.2816230249125781
 40
0.2990119716446893
 40
0.3164023140485393
 40
0.3337940350752194
 40
0.3511870775399263
 40
0.3685813549467463
 40
0.3859767597333335
 40
0.4033731694557849
 40
0.4207704513534034
 40
0.4381684656557116
 40
0.4555670679254796
 40
0.4729661106739065
 40
0.4903654444374749
 40
0.5077649184698626
 40
0.5251643772601773
 40
0.5425636219498591
 40
0.5599625001211166
 40
0.5773608594165782
 40
0.5947585480084014
 40
0.6121554153603953
 40
0.6295513134076579
 40
0.6469460983162295
 40
0.6643396330243999
 40
0.6817317908174356
 40
0.6991224602489633
 40
0.7165115517950242
 40
0.7338990067080299
 40
0.751284808621219
 40
0.7686689985264287
 40
0.7860516937844879
 40
0.8034331117870152
 40
0.8208135987043561
 40
0.8381936633263386
 40
0.8555737864742056
 40
0.872954805679455
 40
0.890337855434701
 40
0.9077243700237402
 40
0.9251160992496859
 40
0.9425150929806483
 40
0.9599236360533869
 40
0.9773441131989016
 40
0.9947787871925311
 40
1.0
 40
1.0
 40
1.0
 40
1.0
 10
539.9625889117713
 20
-427.9831868471927
 30
0.0
 10
539.8089549902265
 20
-427.7952283250276
 30
0.0
 10
538.803641565069
 20
-426.5653096729125
 30
0.0
 10
537.1289665253067
 20
-424.0544331113125
 30
0.0
 10
534.9564832854725
 20
-420.4465523979217
 30
0.0
 10
533.0009713813571
 20
-416.5884886026903
 30
0.0
 10
531.2451129066498
 20
-412.5171105187676
 30
0.0
 10
529.6982621030987
 20
-408.2335438656203
 30
0.0
 10
528.3621445503412
 20
-403.7489848972395
 30
0.0
 10
527.2400393304412
 20
-399.072461995257
 30
0.0
 10
526.3343083216716
 20
-394.2141249080469
 30
0.0
 10
525.6470360415425
 20
-389.184364880072
 30
0.0
 10
525.179833582898
 20
-383.9940384442466
 30
0.0
 10
524.9338676004609
 20
-378.654391514031
 30
0.0
 10
524.9098306637532
 20
-373.1770574217461
 30
0.0
 10
525.1079306638896
 20
-367.5740061333988
 30
0.0
 10
525.5278838400058
 20
-361.8575067414203
 30
0.0
 10
526.16891366014
 20
-356.0400880020519
 30
0.0
 10
527.0297484760446
 20
-350.134524467737
 30
0.0
 10
528.108621873984
 20
-344.1538030046911
 30
0.0
 10
529.4032752952882
 20
-338.1110894697256
 30
0.0
 10
530.9109625977097
 20
-332.0196956987904
 30
0.0
 10
532.6284562558421
 20
-325.8930468971301
 30
0.0
 10
534.5520549699851
 20
-319.7446494500746
 30
0.0
 10
536.6775925039246
 20
-313.5880591465801
 30
0.0
 10
539.0004476163703
 20
-307.4368497951405
 30
0.0
 10
541.5155549842876
 20
-301.3045822112003
 30
0.0
 10
544.2174170414291
 20
-295.2047735603077
 30
0.0
 10
547.1001166733298
 20
-289.1508670489902
 30
0.0
 10
550.1573307225
 20
-283.1562019637552
 30
0.0
 10
553.382344266151
 20
-277.2339840662189
 30
0.0
 10
556.7680653799141
 20
-271.3972567976049
 30
0.0
 10
560.3070379048067
 20
-265.6588770974852
 30
0.0
 10
563.9914604523502
 20
-260.0314813815494
 30
0.0
 10
567.8132039075579
 20
-254.5274569747444
 30
0.0
 10
571.7638326987849
 20
-249.1589102941842
 30
0.0
 10
575.8346200048887
 20
-243.9376449542457
 30
0.0
 10
580.0165667461721
 20
-238.875135259985
 30
0.0
 10
584.3004211914714
 20
-233.9825002444975
 30
0.0
 10
588.676699183961
 20
-229.2704782790578
 30
0.0
 10
593.1357050011728
 20
-224.7494022835523
 30
0.0
 10
597.6675528796729
 20
-220.4291755680766
 30
0.0
 10
602.2621892538524
 20
-216.3192483435074
 30
0.0
 10
606.9094157813636
 20
-212.4285949517418
 30
0.0
 10
611.5989132539154
 20
-208.7656918893335
 30
0.0
 10
616.3202665220863
 20
-205.3384967302917
 30
0.0
 10
621.0629905850174
 20
-202.1544281187199
 30
0.0
 10
625.8165580345776
 20
-199.2203470339517
 30
0.0
 10
630.5704279744159
 20
-196.5425398013011
 30
0.0
 10
635.3140767652031
 20
-194.1267028406274
 30
0.0
 10
640.0370091514784
 20
-191.9779410421889
 30
0.0
 10
644.7288051369684
 20
-190.1007442436147
 30
0.0
 10
649.3791509318894
 20
-188.4989949417799
 30
0.0
 10
653.9779201307559
 20
-187.1759042746747
 30
0.0
 10
658.5151022766464
 20
-186.1342453343738
 30
0.0
 10
662.9811887311039
 20
-185.3755475807245
 30
0.0
 10
667.3658706894792
 20
-184.9031857369124
 30
0.0
 10
671.6630172982299
 20
-184.710954933307
 30
0.0
 10
675.8521439295213
 20
-184.8258818729895
 30
0.0
 10
679.0054064566248
 20
-185.0730080391218
 30
0.0
 10
680.7186231169213
 20
-185.3752842553416
 30
0.0
 10
681.1134462746833
 20
-185.4449459933869
 30
0.0
  0
SPLINE
  5
173
330
1F
100
AcDbEntity
  8
0
  6
Continuous
 62
     7
370
    25
100
AcDbSpline
210
0.0
220
0.0
230
1.0
 70
     8
 71
     3
 72
    13
 73
     9
 74
     0
 42
0.00000001
 43
0.00000001
 40
0.0
 40
0.0
 40
0.0
 40
0.0
 40
0.030171831656202
 40
0.2730495324890372
 40
0.4848307094693444
 40
0.7100393803268578
 40
0.9297739421877211
 40
1.0
 40
1.0
 40
1.0
 40
1.0
 10
736.0110955547417
 20
-223.8192798562163
 30
0.0
 10
736.0474821084152
 20
-223.8364084873374
 30
0.0
 10
736.3767737332211
 20
-223.9914194516402
 30
0.0
 10
736.8289552875791
 20
-224.5028561790548
 30
0.0
 10
737.3800568694548
 20
-225.3952126554969
 30
0.0
 10
737.7396718215888
 20
-226.5228167032215
 30
0.0
 10
737.8789074891329
 20
-227.5671229625046
 30
0.0
 10
737.8880483685384
 20
-228.2085756340479
 30
0.0
 10
737.8902622137367
 20
-228.3639301523491
 30
0.0
  0
SPLINE
  5
174
330
1F
100
AcDbEntity
  8
0
  6
Continuous
 62
     7
370
    25
100
AcDbSpline
210
0.0
220
0.0
230
1.0
 70
     8
 71
     3
 72
    22
 73
    18
 74
     0
 42
0.00000001
 43
0.00000001
 40
0.0
 40
0.0
 40
0.0
 40
0.0
 40
0.0362934660826161
 40
0.1059968498303191
 40
0.1759513347606916
 40
0.2461213226811134
 40
0.3164540845392464
 40
0.3868645620045542
 40
0.4572511292761118
 40
0.527490604454068
 40
0.5974864248553775
 40
0.6671576272454584
 40
0.7364816323994382
 40
0.8056017084958156
 40
0.8748537277511589
 40
0.9452202796697946
 40
1.0
 40
1.0
 40
1.0
 40
1.0
 10
737.8902622137367
 20
-228.3639301523491
 30
0.0
 10
737.884617167856
 20
-228.6215255340309
 30
0.0
 10
737.8681305341696
 20
-229.3738454950663
 30
0.0
 10
737.6813727841842
 20
-230.720619743534
 30
0.0
 10
737.2605089500039
 20
-232.3914351399307
 30
0.0
 10
736.6363664681937
 20
-234.0924399315419
 30
0.0
 10
735.8285899936085
 20
-235.7698449041426
 30
0.0
 10
734.8590302676769
 20
-237.3741377742294
 30
0.0
 10
733.7569744085928
 20
-238.8569471953941
 30
0.0
 10
732.5566708948601
 20
-240.1743122455414
 30
0.0
 10
731.2967930216181
 20
-241.2880623557382
 30
0.0
 10
730.0189087327617
 20
-242.1680669207276
 30
0.0
 10
728.7666309073915
 20
-242.7930169281159
 30
0.0
 10
727.5813483309021
 20
-243.1561994555142
 30
0.0
 10
726.5054160226505
 20
-243.2522524692165
 30
0.0
 10
725.622378591726
 20
-243.141348620519
 30
0.0
 10
725.1640568786896
 20
-242.8979946697977
 30
0.0
 10
724.9634377566795
 20
-242.7914724288855
 30
0.0
  0
SPLINE
  5
175
330
1F
100
AcDbEntity
  8
0
  6
Continuous
 62
     7
370
    25
100
AcDbSpline
210
0.0
220
0.0
230
1.0
 70
     8
 71
     3
 72
    13
 73
     9
 74
     0
 42
0.00000001
 43
0.00000001
 40
0.0
 40
0.0
 40
0.0
 40
0.0
 40
0.030171831656263
 40
0.2730495324890878
 40
0.4848307094693965
 40
0.7100393803269106
 40
0.9297739421877576
 40
1.0
 40
1.0
 40
1.0
 40
1.0
 10
612.2674088470746
 20
-438.1496317207221
 30
0.0
 10
612.3037954007482
 20
-438.1667603518433
 30
0.0
 10
612.6330870255542
 20
-438.321771316146
 30
0.0
 10
613.0852685799122
 20
-438.8332080435607
 30
0.0
 10
613.6363701617879
 20
-439.7255645200029
 30
0.0
 10
613.9959851139218
 20
-440.8531685677275
 30
0.0
 10
614.1352207814658
 20
-441.8974748270106
 30
0.0
 10
614.1443616608714
 20
-442.5389274985537
 30
0.0
 10
614.1465755060698
 20
-442.6942820168548
 30
0.0
  0
SPLINE
  5
176
330
1F
100
AcDbEntity
  8
0
  6
Continuous
 62
     7
370
    25
100
AcDbSpline
210
0.0
220
0.0
230
1.0
 70
     8
 71
     3
 72
    22
 73
    18
 74
     0
 42
0.00000001
 43
0.00000001
 40
0.0
 40
0.0
 40
0.0
 40
0.0
 40
0.0362934660826155
 40
0.1059968498303126
 40
0.1759513347606856
 40
0.2461213226811108
 40
0.3164540845392434
 40
0.3868645620045564
 40
0.4572511292761149
 40
0.5274906044540819
 40
0.5974864248553838
 40
0.667157627245463
 40
0.736481632399441
 40
0.8056017084958156
 40
0.8748537277511551
 40
0.9452202796697979
 40
1.0
 40
1.0
 40
1.0
 40
1.0
 10
614.1465755060698
 20
-442.6942820168548
 30
0.0
 10
614.1409304601889
 20
-442.9518773985367
 30
0.0
 10
614.1244438265027
 20
-443.704197359572
 30
0.0
 10
613.9376860765173
 20
-445.0509716080397
 30
0.0
 10
613.5168222423371
 20
-446.7217870044363
 30
0.0
 10
612.8926797605268
 20
-448.4227917960476
 30
0.0
 10
612.0849032859414
 20
-450.1001967686484
 30
0.0
 10
611.1153435600097
 20
-451.7044896387352
 30
0.0
 10
610.0132877009255
 20
-453.1872990598999
 30
0.0
 10
608.8129841871929
 20
-454.5046641100473
 30
0.0
 10
607.5531063139508
 20
-455.6184142202441
 30
0.0
 10
606.2752220250945
 20
-456.4984187852335
 30
0.0
 10
605.0229441997243
 20
-457.1233687926217
 30
0.0
 10
603.837661623235
 20
-457.4865513200199
 30
0.0
 10
602.7617293149834
 20
-457.5826043337222
 30
0.0
 10
601.878691884059
 20
-457.4717004850248
 30
0.0
 10
601.4203701710225
 20
-457.2283465343036
 30
0.0
 10
601.2197510490123
 20
-457.1218242933913
 30
0.0
  0
SPLINE
  5
177
330
1F
100
AcDbEntity
  8
0
  6
Continuous
 62
     7
370
    25
100
AcDbSpline
210
0.0
220
0.0
230
1.0
 70
     8
 71
     3
 72
    13
 73
     9
 74
     0
 42
0.00000001
 43
0.00000001
 40
0.0
 40
0.0
 40
0.0
 40
0.0
 40
0.0301718316562833
 40
0.2730495324890999
 40
0.4848307094694156
 40
0.7100393803269235
 40
0.929773942187782
 40
1.0
 40
1.0
 40
1.0
 40
1.0
 10
719.4325850938638
 20
-161.9425291899518
 30
0.0
 10
719.4689716475374
 20
-161.959657821073
 30
0.0
 10
719.7982632723434
 20
-162.1146687853758
 30
0.0
 10
720.2504448267015
 20
-162.6261055127904
 30
0.0
 10
720.8015464085772
 20
-163.5184619892326
 30
0.0
 10
721.161161360711
 20
-164.6460660369573
 30
0.0
 10
721.300397028255
 20
-165.6903722962403
 30
0.0
 10
721.3095379076606
 20
-166.3318249677835
 30
0.0
 10
721.311751752859
 20
-166.4871794860845
 30
0.0
  0
SPLINE
  5
178
330
1F
100
AcDbEntity
  8
0
  6
Continuous
 62
     7
370
    25
100
AcDbSpline
210
0.0
220
0.0
230
1.0
 70
     8
 71
     3
 72
    22
 73
    18
 74
     0
 42
0.00000001
 43
0.00000001
 40
0.0
 40
0.0
 40
0.0
 40
0.0
 40
0.0362934660826163
 40
0.1059968498303193
 40
0.1759513347606926
 40
0.246121322681114
 40
0.3164540845392464
 40
0.3868645620045595
 40
0.4572511292761213
 40
0.5274906044540794
 40
0.5974864248553896
 40
0.6671576272454726
 40
0.7364816323994537
 40
0.8056017084958299
 40
0.8748537277511703
 40
0.9452202796698087
 40
1.0
 40
1.0
 40
1.0
 40
1.0
 10
721.311751752859
 20
-166.4871794860845
 30
0.0
 10
721.3061067069782
 20
-166.7447748677664
 30
0.0
 10
721.2896200732919
 20
-167.4970948288017
 30
0.0
 10
721.1028623233065
 20
-168.8438690772695
 30
0.0
 10
720.6819984891262
 20
-170.5146844736662
 30
0.0
 10
720.057856007316
 20
-172.2156892652773
 30
0.0
 10
719.2500795327305
 20
-173.8930942378782
 30
0.0
 10
718.280519806799
 20
-175.497387107965
 30
0.0
 10
717.1784639477148
 20
-176.9801965291297
 30
0.0
 10
715.9781604339821
 20
-178.297561579277
 30
0.0
 10
714.7182825607401
 20
-179.4113116894738
 30
0.0
 10
713.4403982718836
 20
-180.2913162544631
 30
0.0
 10
712.1881204465133
 20
-180.9162662618514
 30
0.0
 10
711.002837870024
 20
-181.2794487892496
 30
0.0
 10
709.9269055617725
 20
-181.3755018029519
 30
0.0
 10
709.0438681308482
 20
-181.2645979542544
 30
0.0
 10
708.5855464178117
 20
-181.0212440035332
 30
0.0
 10
708.3849272958016
 20
-180.9147217626209
 30
0.0
  0
SPLINE
  5
179
330
1F
100
AcDbEntity
  8
0
  6
Continuous
 62
     7
370
    25
100
AcDbSpline
210
0.0
220
0.0
230
1.0
 70
     8
 71
     3
 72
    13
 73
     9
 74
     0
 42
0.00000001
 43
0.00000001
 40
0.0
 40
0.0
 40
0.0
 40
0.0
 40
0.0301718316562823
 40
0.2730495324891353
 40
0.484830709469448
 40
0.7100393803269546
 40
0.9297739421878134
 40
1.0
 40
1.0
 40
1.0
 40
1.0
 10
550.3955654932479
 20
-454.7232346389241
 30
0.0
 10
550.4319520469215
 20
-454.7403632700453
 30
0.0
 10
550.7612436717276
 20
-454.895374234348
 30
0.0
 10
551.2134252260855
 20
-455.4068109617629
 30
0.0
 10
551.7645268079614
 20
-456.2991674382051
 30
0.0
 10
552.1241417600952
 20
-457.4267714859299
 30
0.0
 10
552.263377427639
 20
-458.4710777452128
 30
0.0
 10
552.2725183070446
 20
-459.1125304167559
 30
0.0
 10
552.274732152243
 20
-459.2678849350568
 30
0.0
  0
SPLINE
  5
17A
330
1F
100
AcDbEntity
  8
0
  6
Continuous
 62
     7
370
    25
100
AcDbSpline
210
0.0
220
0.0
230
1.0
 70
     8
 71
     3
 72
    22
 73
    18
 74
     0
 42
0.00000001
 43
0.00000001
 40
0.0
 40
0.0
 40
0.0
 40
0.0
 40
0.0362934660826157
 40
0.1059968498303078
 40
0.175951334760682
 40
0.2461213226811078
 40
0.3164540845392456
 40
0.3868645620045495
 40
0.4572511292761076
 40
0.5274906044540669
 40
0.5974864248553791
 40
0.6671576272454631
 40
0.7364816323994393
 40
0.8056017084958178
 40
0.8748537277511621
 40
0.9452202796698032
 40
0.9999999999999999
 40
0.9999999999999999
 40
0.9999999999999999
 40
0.9999999999999999
 10
552.274732152243
 20
-459.2678849350568
 30
0.0
 10
552.2690871063622
 20
-459.5254803167387
 30
0.0
 10
552.2526004726759
 20
-460.277800277774
 30
0.0
 10
552.0658427226906
 20
-461.6245745262416
 30
0.0
 10
551.6449788885103
 20
-463.2953899226383
 30
0.0
 10
551.0208364067
 20
-464.9963947142496
 30
0.0
 10
550.2130599321148
 20
-466.6737996868503
 30
0.0
 10
549.2435002061832
 20
-468.2780925569371
 30
0.0
 10
548.141444347099
 20
-469.7609019781019
 30
0.0
 10
546.9411408333664
 20
-471.0782670282491
 30
0.0
 10
545.6812629601243
 20
-472.192017138446
 30
0.0
 10
544.4033786712679
 20
-473.0720217034353
 30
0.0
 10
543.1511008458975
 20
-473.6969717108237
 30
0.0
 10
541.9658182694083
 20
-474.0601542382219
 30
0.0
 10
540.8898859611567
 20
-474.1562072519243
 30
0.0
 10
540.0068485302323
 20
-474.0453034032267
 30
0.0
 10
539.5485268171958
 20
-473.8019494525055
 30
0.0
 10
539.3479076951857
 20
-473.6954272115933
 30
0.0
  0
SPLINE
  5
17B
330
1F
100
AcDbEntity
  8
0
  6
Continuous
 62
     7
370
    25
100
AcDbSpline
210
0.0
220
0.0
230
1.0
 70
     8
 71
     3
 72
    13
 73
     9
 74
     0
 42
0.00000001
 43
0.00000001
 40
0.0
 40
0.0
 40
0.0
 40
0.0
 40
0.0301718316562939
 40
0.2730495324891615
 40
0.4848307094694647
 40
0.7100393803269648
 40
0.9297739421878166
 40
1.0
 40
1.0
 40
1.0
 40
1.0
 10
674.1392522009229
 20
-135.7867446424705
 30
0.0
 10
674.1756387545964
 20
-135.8038732735917
 30
0.0
 10
674.5049303794026
 20
-135.9588842378945
 30
0.0
 10
674.9571119337605
 20
-136.4703209653094
 30
0.0
 10
675.5082135156363
 20
-137.3626774417516
 30
0.0
 10
675.8678284677702
 20
-138.4902814894763
 30
0.0
 10
676.007064135314
 20
-139.5345877487592
 30
0.0
 10
676.0162050147196
 20
-140.1760404203022
 30
0.0
 10
676.018418859918
 20
-140.3313949386032
 30
0.0
  0
SPLINE
  5
17C
330
1F
100
AcDbEntity
  8
0
  6
Continuous
 62
     7
370
    25
100
AcDbSpline
210
0.0
220
0.0
230
1.0
 70
     8
 71
     3
 72
    22
 73
    18
 74
     0
 42
0.00000001
 43
0.00000001
 40
0.0
 40
0.0
 40
0.0
 40
0.0
 40
0.0362934660826157
 40
0.1059968498303077
 40
0.1759513347606819
 40
0.2461213226811077
 40
0.3164540845392455
 40
0.3868645620045493
 40
0.4572511292761074
 40
0.5274906044540667
 40
0.5974864248553788
 40
0.6671576272454629
 40
0.736481632399439
 40
0.8056017084958176
 40
0.8748537277511618
 40
0.9452202796698028
 40
0.9999999999999999
 40
0.9999999999999999
 40
0.9999999999999999
 40
0.9999999999999999
 10
676.018418859918
 20
-140.3313949386032
 30
0.0
 10
676.0127738140371
 20
-140.588990320285
 30
0.0
 10
675.9962871803509
 20
-141.3413102813203
 30
0.0
 10
675.8095294303654
 20
-142.6880845297879
 30
0.0
 10
675.3886655961853
 20
-144.3588999261847
 30
0.0
 10
674.764523114375
 20
-146.0599047177959
 30
0.0
 10
673.9567466397897
 20
-147.7373096903968
 30
0.0
 10
672.9871869138581
 20
-149.3416025604835
 30
0.0
 10
671.885131054774
 20
-150.8244119816482
 30
0.0
 10
670.6848275410413
 20
-152.1417770317955
 30
0.0
 10
669.4249496677993
 20
-153.2555271419923
 30
0.0
 10
668.1470653789429
 20
-154.1355317069818
 30
0.0
 10
666.8947875535724
 20
-154.76048171437
 30
0.0
 10
665.7095049770833
 20
-155.1236642417683
 30
0.0
 10
664.6335726688314
 20
-155.2197172554706
 30
0.0
 10
663.7505352379071
 20
-155.1088134067732
 30
0.0
 10
663.2922135248707
 20
-154.8654594560519
 30
0.0
 10
663.0915944028606
 20
-154.7589372151397
 30
0.0
  0
SPLINE
  5
17D
330
1F
100
AcDbEntity
  8
0
  6
Continuous
 62
     7
370
    25
100
AcDbSpline
210
0.0
220
0.0
230
1.0
 70
     8
 71
     3
 72
    13
 73
     9
 74
     0
 42
0.00000001
 43
0.00000001
 40
0.0
 40
0.0
 40
0.0
 40
0.0
 40
0.0301718316562308
 40
0.2730495324890876
 40
0.4848307094693869
 40
0.7100393803268953
 40
0.9297739421877558
 40
1.0
 40
1.0
 40
1.0
 40
1.0
 10
505.1022326003068
 20
-428.5674500914428
 30
0.0
 10
505.1386191539804
 20
-428.584578722564
 30
0.0
 10
505.4679107787864
 20
-428.7395896868667
 30
0.0
 10
505.9200923331443
 20
-429.2510264142815
 30
0.0
 10
506.4711939150201
 20
-430.1433828907236
 30
0.0
 10
506.830808867154
 20
-431.2709869384482
 30
0.0
 10
506.9700445346979
 20
-432.3152931977313
 30
0.0
 10
506.9791854141036
 20
-432.9567458692744
 30
0.0
 10
506.981399259302
 20
-433.1121003875755
 30
0.0
  0
SPLINE
  5
17E
330
1F
100
AcDbEntity
  8
0
  6
Continuous
 62
     7
370
    25
100
AcDbSpline
210
0.0
220
0.0
230
1.0
 70
     8
 71
     3
 72
    22
 73
    18
 74
     0
 42
0.00000001
 43
0.00000001
 40
0.0
 40
0.0
 40
0.0
 40
0.0
 40
0.0362934660826163
 40
0.1059968498303192
 40
0.1759513347606926
 40
0.2461213226811139
 40
0.3164540845392463
 40
0.3868645620045593
 40
0.4572511292761211
 40
0.5274906044540791
 40
0.5974864248553894
 40
0.6671576272454723
 40
0.7364816323994535
 40
0.8056017084958296
 40
0.87485372775117
 40
0.9452202796698084
 40
1.0
 40
1.0
 40
1.0
 40
1.0
 10
506.981399259302
 20
-433.1121003875755
 30
0.0
 10
506.9757542134212
 20
-433.3696957692574
 30
0.0
 10
506.9592675797348
 20
-434.1220157302928
 30
0.0
 10
506.7725098297494
 20
-435.4687899787605
 30
0.0
 10
506.3516459955692
 20
-437.1396053751571
 30
0.0
 10
505.727503513759
 20
-438.8406101667684
 30
0.0
 10
504.9197270391737
 20
-440.5180151393691
 30
0.0
 10
503.9501673132419
 20
-442.122308009456
 30
0.0
 10
502.8481114541578
 20
-443.6051174306207
 30
0.0
 10
501.6478079404251
 20
-444.9224824807681
 30
0.0
 10
500.387930067183
 20
-446.0362325909649
 30
0.0
 10
499.1100457783267
 20
-446.9162371559542
 30
0.0
 10
497.8577679529564
 20
-447.5411871633424
 30
0.0
 10
496.672485376467
 20
-447.9043696907407
 30
0.0
 10
495.5965530682155
 20
-448.0004227044429
 30
0.0
 10
494.7135156372912
 20
-447.8895188557455
 30
0.0
 10
494.2551939242547
 20
-447.6461649050242
 30
0.0
 10
494.0545748022446
 20
-447.539642664112
 30
0.0
  0
SPLINE
  5
17F
330
1F
100
AcDbEntity
  8
0
  6
Continuous
 62
     7
370
    25
100
AcDbSpline
210
0.0
220
0.0
230
1.0
 70
     8
 71
     3
 72
    13
 73
     9
 74
     0
 42
0.00000001
 43
0.00000001
 40
0.0
 40
0.0
 40
0.0
 40
0.0
 40
0.0301718316562739
 40
0.2730495324891467
 40
0.4848307094694602
 40
0.7100393803269729
 40
0.9297739421878235
 40
1.0
 40
1.0
 40
1.0
 40
1.0
 10
612.267408847096
 20
-152.3603475606724
 30
0.0
 10
612.3037954007698
 20
-152.3774761917937
 30
0.0
 10
612.6330870255757
 20
-152.5324871560966
 30
0.0
 10
613.0852685799338
 20
-153.0439238835113
 30
0.0
 10
613.6363701618095
 20
-153.9362803599535
 30
0.0
 10
613.9959851139433
 20
-155.0638844076782
 30
0.0
 10
614.1352207814873
 20
-156.1081906669611
 30
0.0
 10
614.1443616608929
 20
-156.7496433385042
 30
0.0
 10
614.1465755060912
 20
-156.9049978568052
 30
0.0
  0
SPLINE
  5
180
330
1F
100
AcDbEntity
  8
0
  6
Continuous
 62
     7
370
    25
100
AcDbSpline
210
0.0
220
0.0
230
1.0
 70
     8
 71
     3
 72
    22
 73
    18
 74
     0
 42
0.00000001
 43
0.00000001
 40
0.0
 40
0.0
 40
0.0
 40
0.0
 40
0.0362934660826155
 40
0.1059968498303126
 40
0.1759513347606855
 40
0.2461213226811107
 40
0.3164540845392433
 40
0.3868645620045564
 40
0.4572511292761152
 40
0.5274906044540822
 40
0.5974864248553845
 40
0.6671576272454636
 40
0.7364816323994415
 40
0.805601708495822
 40
0.8748537277511679
 40
0.9452202796698098
 40
1.0
 40
1.0
 40
1.0
 40
1.0
 10
614.1465755060912
 20
-156.9049978568052
 30
0.0
 10
614.1409304602105
 20
-157.162593238487
 30
0.0
 10
614.124443826524
 20
-157.9149131995224
 30
0.0
 10
613.9376860765386
 20
-159.26168744799
 30
0.0
 10
613.5168222423584
 20
-160.9325028443867
 30
0.0
 10
612.8926797605482
 20
-162.633507635998
 30
0.0
 10
612.0849032859629
 20
-164.3109126085988
 30
0.0
 10
611.1153435600313
 20
-165.9152054786857
 30
0.0
 10
610.013287700947
 20
-167.3980148998504
 30
0.0
 10
608.8129841872143
 20
-168.7153799499978
 30
0.0
 10
607.5531063139723
 20
-169.8291300601945
 30
0.0
 10
606.275222025116
 20
-170.7091346251838
 30
0.0
 10
605.0229441997457
 20
-171.3340846325721
 30
0.0
 10
603.8376616232564
 20
-171.6972671599704
 30
0.0
 10
602.7617293150046
 20
-171.7933201736726
 30
0.0
 10
601.8786918840802
 20
-171.6824163249751
 30
0.0
 10
601.4203701710438
 20
-171.4390623742539
 30
0.0
 10
601.2197510490338
 20
-171.3325401333416
 30
0.0
  0
SPLINE
  5
181
330
1F
100
AcDbEntity
  8
0
  6
Continuous
 62
     7
370
    25
100
AcDbSpline
210
0.0
220
0.0
230
1.0
 70
     8
 71
     3
 72
    13
 73
     9
 74
     0
 42
0.00000001
 43
0.00000001
 40
0.0
 40
0.0
 40
0.0
 40
0.0
 40
0.0301718316563544
 40
0.2730495324892197
 40
0.4848307094695262
 40
0.7100393803270267
 40
0.9297739421878828
 40
1.0
 40
1.0
 40
1.0
 40
1.0
 10
488.523722139429
 20
-366.6906994251783
 30
0.0
 10
488.5601086931027
 20
-366.7078280562995
 30
0.0
 10
488.8894003179088
 20
-366.8628390206025
 30
0.0
 10
489.3415818722668
 20
-367.3742757480174
 30
0.0
 10
489.8926834541426
 20
-368.2666322244597
 30
0.0
 10
490.2522984062764
 20
-369.3942362721844
 30
0.0
 10
490.3915340738201
 20
-370.4385425314673
 30
0.0
 10
490.4006749532257
 20
-371.0799952030102
 30
0.0
 10
490.4028887984242
 20
-371.235349721311
 30
0.0
  0
SPLINE
  5
182
330
1F
100
AcDbEntity
  8
0
  6
Continuous
 62
     7
370
    25
100
AcDbSpline
210
0.0
220
0.0
230
1.0
 70
     8
 71
     3
 72
    22
 73
    18
 74
     0
 42
0.00000001
 43
0.00000001
 40
0.0
 40
0.0
 40
0.0
 40
0.0
 40
0.036293466082616
 40
0.1059968498303415
 40
0.1759513347607058
 40
0.2461213226811244
 40
0.3164540845392612
 40
0.3868645620045706
 40
0.457251129276128
 40
0.5274906044540885
 40
0.5974864248553957
 40
0.667157627245476
 40
0.7364816323994547
 40
0.8056017084958327
 40
0.8748537277511769
 40
0.9452202796698153
 40
1.0
 40
1.0
 40
1.0
 40
1.0
 10
490.4028887984242
 20
-371.235349721311
 30
0.0
 10
490.3972437525433
 20
-371.4929451029928
 30
0.0
 10
490.380757118857
 20
-372.2452650640284
 30
0.0
 10
490.1939993688715
 20
-373.5920393124962
 30
0.0
 10
489.7731355346912
 20
-375.262854708893
 30
0.0
 10
489.1489930528809
 20
-376.9638595005042
 30
0.0
 10
488.3412165782956
 20
-378.641264473105
 30
0.0
 10
487.371656852364
 20
-380.2455573431917
 30
0.0
 10
486.2696009932798
 20
-381.7283667643564
 30
0.0
 10
485.0692974795471
 20
-383.0457318145037
 30
0.0
 10
483.8094196063051
 20
-384.1594819247004
 30
0.0
 10
482.5315353174486
 20
-385.0394864896897
 30
0.0
 10
481.2792574920784
 20
-385.664436497078
 30
0.0
 10
480.093974915589
 20
-386.0276190244761
 30
0.0
 10
479.0180426073375
 20
-386.1236720381784
 30
0.0
 10
478.1350051764133
 20
-386.0127681894809
 30
0.0
 10
477.6766834633767
 20
-385.7694142387597
 30
0.0
 10
477.4760643413667
 20
-385.6628919978474
 30
0.0
  0
SPLINE
  5
183
330
1F
100
AcDbEntity
  8
0
  6
Continuous
 62
     7
370
    25
100
AcDbSpline
210
0.0
220
0.0
230
1.0
 70
     8
 71
     3
 72
    13
 73
     9
 74
     0
 42
0.00000001
 43
0.00000001
 40
0.0
 40
0.0
 40
0.0
 40
0.0
 40
0.0301718316561505
 40
0.2730495324890103
 40
0.4848307094693131
 40
0.7100393803268183
 40
0.9297739421876787
 40
1.0
 40
1.0
 40
1.0
 40
1.0
 10
550.3955654932664
 20
-207.2224544269514
 30
0.0
 10
550.4319520469398
 20
-207.2395830580726
 30
0.0
 10
550.7612436717458
 20
-207.3945940223753
 30
0.0
 10
551.2134252261037
 20
-207.9060307497899
 30
0.0
 10
551.7645268079796
 20
-208.7983872262319
 30
0.0
 10
552.1241417601135
 20
-209.9259912739564
 30
0.0
 10
552.2633774276575
 20
-210.9702975332397
 30
0.0
 10
552.2725183070631
 20
-211.6117502047829
 30
0.0
 10
552.2747321522615
 20
-211.7671047230842
 30
0.0
  0
SPLINE
  5
184
330
1F
100
AcDbEntity
  8
0
  6
Continuous
 62
     7
370
    25
100
AcDbSpline
210
0.0
220
0.0
230
1.0
 70
     8
 71
     3
 72
    22
 73
    18
 74
     0
 42
0.00000001
 43
0.00000001
 40
0.0
 40
0.0
 40
0.0
 40
0.0
 40
0.0362934660826154
 40
0.1059968498303068
 40
0.1759513347606803
 40
0.2461213226811057
 40
0.3164540845392399
 40
0.3868645620045464
 40
0.4572511292760977
 40
0.5274906044540641
 40
0.5974864248553716
 40
0.6671576272454435
 40
0.7364816323994265
 40
0.8056017084957992
 40
0.8748537277511442
 40
0.9452202796697858
 40
1.0
 40
1.0
 40
1.0
 40
1.0
 10
552.2747321522615
 20
-211.7671047230842
 30
0.0
 10
552.2690871063808
 20
-212.024700104766
 30
0.0
 10
552.2526004726944
 20
-212.7770200658014
 30
0.0
 10
552.065842722709
 20
-214.1237943142689
 30
0.0
 10
551.6449788885288
 20
-215.7946097106657
 30
0.0
 10
551.0208364067187
 20
-217.4956145022769
 30
0.0
 10
550.2130599321332
 20
-219.1730194748777
 30
0.0
 10
549.2435002062017
 20
-220.7773123449645
 30
0.0
 10
548.1414443471175
 20
-222.2601217661291
 30
0.0
 10
546.941140833385
 20
-223.5774868162765
 30
0.0
 10
545.6812629601428
 20
-224.6912369264733
 30
0.0
 10
544.4033786712865
 20
-225.5712414914627
 30
0.0
 10
543.1511008459162
 20
-226.196191498851
 30
0.0
 10
541.9658182694269
 20
-226.5593740262492
 30
0.0
 10
540.8898859611753
 20
-226.6554270399517
 30
0.0
 10
540.0068485302509
 20
-226.5445231912542
 30
0.0
 10
539.5485268172142
 20
-226.3011692405329
 30
0.0
 10
539.3479076952041
 20
-226.1946469996207
 30
0.0
  0
SPLINE
  5
185
330
1F
100
AcDbEntity
  8
0
  6
Continuous
 62
     7
370
    25
100
AcDbSpline
210
0.0
220
0.0
230
1.0
 70
     8
 71
     3
 72
    13
 73
     9
 74
     0
 42
0.00000001
 43
0.00000001
 40
0.0
 40
0.0
 40
0.0
 40
0.0
 40
0.0301718316562764
 40
0.2730495324891407
 40
0.4848307094694596
 40
0.7100393803269955
 40
0.9297739421878267
 40
1.0
 40
1.0
 40
1.0
 40
1.0
 10
505.1022326003175
 20
-285.6728080114181
 30
0.0
 10
505.1386191539912
 20
-285.6899366425393
 30
0.0
 10
505.4679107787971
 20
-285.8449476068421
 30
0.0
 10
505.9200923331551
 20
-286.3563843342569
 30
0.0
 10
506.4711939150311
 20
-287.2487408106992
 30
0.0
 10
506.8308088671648
 20
-288.3763448584239
 30
0.0
 10
506.9700445347087
 20
-289.4206511177069
 30
0.0
 10
506.9791854141142
 20
-290.0621037892499
 30
0.0
 10
506.9813992593126
 20
-290.2174583075508
 30
0.0
  0
SPLINE
  5
186
330
1F
100
AcDbEntity
  8
0
  6
Continuous
 62
     7
370
    25
100
AcDbSpline
210
0.0
220
0.0
230
1.0
 70
     8
 71
     3
 72
    22
 73
    18
 74
     0
 42
0.00000001
 43
0.00000001
 40
0.0
 40
0.0
 40
0.0
 40
0.0
 40
0.036293466082616
 40
0.1059968498303411
 40
0.1759513347607058
 40
0.2461213226811247
 40
0.316454084539262
 40
0.3868645620045649
 40
0.4572511292761192
 40
0.5274906044540787
 40
0.5974864248553896
 40
0.6671576272454678
 40
0.7364816323994484
 40
0.8056017084958249
 40
0.8748537277511674
 40
0.945220279669804
 40
1.0
 40
1.0
 40
1.0
 40
1.0
 10
506.9813992593126
 20
-290.2174583075508
 30
0.0
 10
506.9757542134319
 20
-290.4750536892327
 30
0.0
 10
506.9592675797455
 20
-291.2273736502682
 30
0.0
 10
506.7725098297601
 20
-292.574147898736
 30
0.0
 10
506.3516459955797
 20
-294.2449632951329
 30
0.0
 10
505.7275035137695
 20
-295.9459680867441
 30
0.0
 10
504.9197270391841
 20
-297.6233730593448
 30
0.0
 10
503.9501673132525
 20
-299.2276659294315
 30
0.0
 10
502.8481114541684
 20
-300.7104753505961
 30
0.0
 10
501.6478079404357
 20
-302.0278404007434
 30
0.0
 10
500.3879300671937
 20
-303.1415905109402
 30
0.0
 10
499.1100457783373
 20
-304.0215950759294
 30
0.0
 10
497.857767952967
 20
-304.6465450833178
 30
0.0
 10
496.6724853764777
 20
-305.0097276107159
 30
0.0
 10
495.5965530682261
 20
-305.1057806244183
 30
0.0
 10
494.7135156373018
 20
-304.9948767757207
 30
0.0
 10
494.2551939242653
 20
-304.7515228249995
 30
0.0
 10
494.0545748022552
 20
-304.6450005840873
 30
0.0
  0
LWPOLYLINE
  5
187
330
1F
100
AcDbEntity
  8
0
  6
Continuous
 62
     7
370
    25
100
AcDbPolyline
 90
      149
 70
   128
 43
0.0
 10
744.9006698538
 20
-224.0777875653
 10
744.7754743773
 20
-217.3403588832
 10
744.4001135586
 20
-210.7596191234
 10
743.7752638232
 20
-204.3474272236
 10
742.9020511926
 20
-198.1153383871
 10
741.782049255
 20
-192.0745832593
 10
740.4172763295
 20
-186.236047689
 10
738.8101918292
 20
-180.6102531121
 10
736.963691829
 20
-175.2073375907
 10
734.8811038468
 20
-170.0370375436
 10
732.5661808468
 20
-165.1086702011
 10
730.0230944767
 20
-160.4311168142
 10
727.25642755
 20
-156.0128066503
 10
724.2711657877
 20
-151.8617018029
 10
721.072688833
 20
-147.9852828435
 10
717.6667605578
 20
-144.3905353411
 10
714.0595186749
 20
-141.0839372737
 10
710.2574636781
 20
-138.0714473545
 10
706.2674471274
 20
-135.3584942939
 10
702.0966593023
 20
-132.9499670168
 10
697.7526162445
 20
-130.850205852
 10
693.243146213
 20
-129.0629947112
 10
688.5763755778
 20
-127.5915542695
 10
683.7607141749
 20
-126.4385361621
 10
678.8048401517
 20
-125.6060182057
 10
673.7176843281
 20
-125.0955006537
 10
668.5084141028
 20
-124.9079034934
 10
663.1864169328
 20
-125.0435647875
 10
657.7612834168
 20
-125.5022400652
 10
652.2427900119
 20
-126.2831027627
 10
646.6408814164
 20
-127.3847457125
 10
640.9656526481
 20
-128.8051836796
 10
635.2273308529
 20
-130.5418569388
 10
629.4362568745
 20
-132.5916358876
 10
623.6028666197
 20
-134.9508266856
 10
617.737672252
 20
-137.6151779116
 10
611.851243248
 20
-140.5798882246
 10
605.9541873507
 20
-143.8396150163
 10
600.0571314534
 20
-147.3884840386
 10
594.1707024494
 20
-151.2200999897
 10
588.3055080816
 20
-155.3275580387
 10
582.4721178268
 20
-159.7034562685
 10
576.6810438484
 20
-164.3399090148
 10
570.9427220532
 20
-169.2285610762
 10
565.267493285
 20
-174.3606027715
 10
559.6655846894
 20
-179.7267858146
 10
554.1470912846
 20
-185.3174399808
 10
548.7219577685
 20
-191.1224905336
 10
543.3999605985
 20
-197.1314763795
 10
538.1906903732
 20
-203.3335689198
 10
533.1035345496
 20
-209.7175915646
 10
528.1476605264
 20
-216.2720398736
 10
523.3319991235
 20
-222.9851022878
 10
518.6652284883
 20
-229.8446814151
 10
514.1557584569
 20
-236.8384158303
 10
509.811715399
 20
-243.9537023512
 10
505.640927574
 20
-251.1777187506
 10
501.6509110233
 20
-258.4974468626
 10
497.8488560264
 20
-265.8996960425
 10
494.2416141435
 20
-273.371126937
 10
490.8356858683
 20
-280.8982755224
 10
487.6372089137
 20
-288.4675773684
 10
484.6519471513
 20
-296.0653920814
 10
481.8852802247
 20
-303.6780278856
 10
479.3421938546
 20
-311.291766297
 10
477.0272708545
 20
-318.8928868442
 10
474.9446828723
 20
-326.4676917942
 10
473.0981828721
 20
-334.0025308366
 10
471.4910983718
 20
-341.4838256821
 10
470.1263254464
 20
-348.8980945317
 10
469.0063235087
 20
-356.2319763718
 10
468.1331108781
 20
-363.4722550516
 10
467.5082611427
 20
-370.6058830997
 10
467.132900324
 20
-377.620005236
 10
467.0077048475
 20
-384.5019815384
 10
467.132900324
 20
-391.2394102205
 10
467.5082611427
 20
-397.8201499803
 10
468.1331108781
 20
-404.2323418801
 10
469.0063235087
 20
-410.4644307165
 10
470.1263254464
 20
-416.5051858444
 10
471.4910983718
 20
-422.3437214147
 10
473.0981828721
 20
-427.9695159916
 10
474.9446828723
 20
-433.372431513
 10
477.0272708545
 20
-438.5427315601
 10
479.3421938546
 20
-443.4710989026
 10
481.8852802247
 20
-448.1486522895
 10
484.6519471513
 20
-452.5669624534
 10
487.6372089137
 20
-456.7180673008
 10
490.8356858683
 20
-460.5944862602
 10
494.2416141435
 20
-464.1892337626
 10
497.8488560264
 20
-467.49583183
 10
501.6509110233
 20
-470.5083217492
 10
505.640927574
 20
-473.2212748097
 10
509.811715399
 20
-475.6298020869
 10
514.1557584569
 20
-477.7295632517
 10
518.6652284883
 20
-479.5167743925
 10
523.3319991235
 20
-480.9882148342
 10
528.1476605264
 20
-482.1412329415
 10
533.1035345496
 20
-482.973750898
 10
538.1906903732
 20
-483.4842684499
 10
543.3999605985
 20
-483.6718656102
 10
548.7219577685
 20
-483.5362043161
 10
554.1470912846
 20
-483.0775290384
 10
559.6655846894
 20
-482.296666341
 10
565.267493285
 20
-481.1950233912
 10
570.9427220532
 20
-479.7745854241
 10
576.6810438484
 20
-478.0379121648
 10
582.4721178268
 20
-475.9881332161
 10
588.3055080816
 20
-473.6289424181
 10
594.1707024494
 20
-470.9645911921
 10
600.0571314534
 20
-467.9998808791
 10
605.9541873507
 20
-464.7401540874
 10
611.851243248
 20
-461.1912850651
 10
617.737672252
 20
-457.359669114
 10
623.6028666197
 20
-453.252211065
 10
629.4362568745
 20
-448.8763128352
 10
635.2273308529
 20
-444.2398600889
 10
640.9656526481
 20
-439.3512080274
 10
646.6408814164
 20
-434.2191663322
 10
652.2427900119
 20
-428.8529832891
 10
657.7612834168
 20
-423.2623291228
 10
663.1864169328
 20
-417.45727857
 10
668.5084141028
 20
-411.4482927242
 10
673.7176843281
 20
-405.2462001838
 10
678.8048401517
 20
-398.8621775391
 10
683.7607141749
 20
-392.3077292301
 10
688.5763755778
 20
-385.5946668159
 10
693.243146213
 20
-378.7350876885
 10
697.7526162445
 20
-371.7413532734
 10
702.0966593023
 20
-364.6260667525
 10
706.2674471274
 20
-357.4020503531
 10
710.2574636781
 20
-350.082322241
 10
714.0595186749
 20
-342.6800730611
 10
717.6667605578
 20
-335.2086421667
 10
721.072688833
 20
-327.6814935813
 10
724.2711657877
 20
-320.1121917353
 10
727.25642755
 20
-312.5143770223
 10
730.0230944767
 20
-304.901741218
 10
732.5661808468
 20
-297.2880028067
 10
734.8811038468
 20
-289.6868822595
 10
736.963691829
 20
-282.1120773094
 10
738.8101918292
 20
-274.5772382671
 10
740.4172763295
 20
-267.0959434216
 10
741.782049255
 20
-259.681674572
 10
742.9020511926
 20
-252.3477927319
 10
743.7752638232
 20
-245.107514052
 10
744.4001135586
 20
-237.973886004
 10
744.7754743773
 20
-230.9597638677
 10
744.9006698538
 20
-224.0777875653
  0
ARC
  5
188
330
1F
100
AcDbEntity
  8
0
  6
Continuous
 62
     7
370
    25
100
AcDbCircle
 10
542.3183373318
 20
-416.1566928116
 30
0.0
 40
68.73891326028969
100
AcDbArc
 50
214.033079791
 51
266.0143056535
  0
ARC
  5
189
330
1F
100
AcDbEntity
  8
0
  6
Continuous
 62
     7
370
    25
100
AcDbCircle
 10
671.0910210794
 20
-193.0727642391
 30
0.0
 40
68.56637490004543
100
AcDbArc
 50
34.5050331733
 51
86.0605917471
  0
ARC
  5
18A
330
1F
100
AcDbEntity
  8
0
  6
Continuous
 62
     7
370
    25
100
AcDbCircle
 10
690.0554474707
 20
-205.2627337396
 30
0.0
 40
69.69132246100088
100
AcDbArc
 50
34.0525938735
 51
59.7136975225
  0
ARC
  5
18B
330
1F
100
AcDbEntity
  8
0
  6
Continuous
 62
     7
370
    25
100
AcDbCircle
 10
562.5300540652
 20
-425.7398125727
 30
0.0
 40
70.61038755853386
100
AcDbArc
 50
240.4612773102
 51
265.7952549812
  0
LWPOLYLINE
  5
18C
330
1F
100
AcDbEntity
  8
0
  6
Continuous
 62
     7
370
    25
100
AcDbPolyline
 90
       37
 70
   128
 43
0.0
 10
507.2742924781
 20
-289.8092542516
 10
507.1453819877
 20
-291.5851625814
 10
506.7625673966
 20
-293.4559477193
 10
506.1374803322
 20
-295.3647668057
 10
505.2891137489
 20
-297.2536213385
 10
504.243244836
 20
-299.0651194285
 10
503.031651791
 20
-300.7442196229
 10
501.6911482557
 20
-302.2399033121
 10
500.2624647515
 20
-303.5067249038
 10
498.7890111039
 20
-304.5061926652
 10
497.3155574563
 20
-305.207938274
 10
495.8868739521
 20
-305.5906395451
 10
494.5463704168
 20
-305.6426682939
 10
493.3347773718
 20
-305.3624436532
 10
492.2889084589
 20
-304.7584801071
 10
491.4405418755
 20
-303.8491287821
 10
490.8154548112
 20
-302.6620198581
 10
490.43264022
 20
-301.2332230391
 10
490.3037297296
 20
-299.6061515935
 10
490.43264022
 20
-297.8302432638
 10
490.8154548112
 20
-295.9594581258
 10
491.4405418755
 20
-294.0506390394
 10
492.2889084589
 20
-292.1617845066
 10
493.3347773718
 20
-290.3502864166
 10
494.5463704168
 20
-288.6711862222
 10
495.8868739521
 20
-287.1755025331
 10
497.3155574563
 20
-285.9086809413
 10
498.7890111039
 20
-284.9092131799
 10
500.2624647515
 20
-284.2074675711
 10
501.6911482557
 20
-283.8247663001
 10
503.031651791
 20
-283.7727375513
 10
504.243244836
 20
-284.0529621919
 10
505.2891137489
 20
-284.6569257381
 10
506.1374803322
 20
-285.5662770631
 10
506.7625673966
 20
-286.753385987
 10
507.1453819877
 20
-288.182182806
 10
507.2742924781
 20
-289.8092542516
  0
LWPOLYLINE
  5
18D
330
1F
100
AcDbEntity
  8
0
  6
Continuous
 62
     7
370
    25
100
AcDbPolyline
 90
       37
 70
   128
 43
0.0
 10
507.2742924781
 20
-432.7038963317
 10
507.1453819877
 20
-434.4798046614
 10
506.7625673965
 20
-436.3505897994
 10
506.1374803322
 20
-438.2594088858
 10
505.2891137489
 20
-440.1482634185
 10
504.2432448359
 20
-441.9597615085
 10
503.031651791
 20
-443.638861703
 10
501.6911482557
 20
-445.1345453921
 10
500.2624647515
 20
-446.4013669838
 10
498.7890111039
 20
-447.4008347452
 10
497.3155574562
 20
-448.1025803541
 10
495.8868739521
 20
-448.4852816251
 10
494.5463704168
 20
-448.5373103739
 10
493.3347773718
 20
-448.2570857333
 10
492.2889084588
 20
-447.6531221871
 10
491.4405418755
 20
-446.7437708621
 10
490.8154548112
 20
-445.5566619381
 10
490.43264022
 20
-444.1278651192
 10
490.3037297296
 20
-442.5007936735
 10
490.43264022
 20
-440.7248853438
 10
490.8154548112
 20
-438.8541002058
 10
491.4405418755
 20
-436.9452811195
 10
492.2889084588
 20
-435.0564265867
 10
493.3347773718
 20
-433.2449284967
 10
494.5463704168
 20
-431.5658283022
 10
495.8868739521
 20
-430.0701446131
 10
497.3155574562
 20
-428.8033230214
 10
498.7890111039
 20
-427.80385526
 10
500.2624647515
 20
-427.1021096511
 10
501.6911482557
 20
-426.7194083801
 10
503.031651791
 20
-426.6673796313
 10
504.2432448359
 20
-426.9476042719
 10
505.2891137489
 20
-427.5515678181
 10
506.1374803322
 20
-428.4609191431
 10
506.7625673965
 20
-429.6480280671
 10
507.1453819877
 20
-431.076824886
 10
507.2742924781
 20
-432.7038963317
  0
LWPOLYLINE
  5
18E
330
1F
100
AcDbEntity
  8
0
  6
Continuous
 62
     7
370
    25
100
AcDbPolyline
 90
       37
 70
   128
 43
0.0
 10
614.4394687249
 20
-442.2860779609
 10
614.3105582345
 20
-444.0619862907
 10
613.9277436433
 20
-445.9327714287
 10
613.302656579
 20
-447.841590515
 10
612.4542899957
 20
-449.7304450478
 10
611.4084210827
 20
-451.5419431378
 10
610.1968280378
 20
-453.2210433322
 10
608.8563245024
 20
-454.7167270214
 10
607.4276409983
 20
-455.9835486131
 10
605.9541873506
 20
-456.9830163745
 10
604.480733703
 20
-457.6847619833
 10
603.0520501989
 20
-458.0674632544
 10
601.7115466635
 20
-458.1194920032
 10
600.4999536186
 20
-457.8392673625
 10
599.4540847056
 20
-457.2353038164
 10
598.6057181223
 20
-456.3259524914
 10
597.980631058
 20
-455.1388435674
 10
597.5978164668
 20
-453.7100467484
 10
597.4689059764
 20
-452.0829753028
 10
597.5978164668
 20
-450.3070669731
 10
597.980631058
 20
-448.4362818351
 10
598.6057181223
 20
-446.5274627487
 10
599.4540847056
 20
-444.638608216
 10
600.4999536186
 20
-442.8271101259
 10
601.7115466635
 20
-441.1480099315
 10
603.0520501989
 20
-439.6523262424
 10
604.480733703
 20
-438.3855046506
 10
605.9541873506
 20
-437.3860368893
 10
607.4276409983
 20
-436.6842912804
 10
608.8563245024
 20
-436.3015900094
 10
610.1968280378
 20
-436.2495612606
 10
611.4084210827
 20
-436.5297859012
 10
612.4542899957
 20
-437.1337494474
 10
613.302656579
 20
-438.0431007724
 10
613.9277436433
 20
-439.2302096964
 10
614.3105582345
 20
-440.6590065153
 10
614.4394687249
 20
-442.2860779609
  0
LWPOLYLINE
  5
18F
330
1F
100
AcDbEntity
  8
0
  6
Continuous
 62
     7
370
    25
100
AcDbPolyline
 90
       37
 70
   128
 43
0.0
 10
738.1831554326
 20
-227.9557260964
 10
738.0542449422
 20
-229.7316344262
 10
737.671430351
 20
-231.6024195641
 10
737.0463432867
 20
-233.5112386505
 10
736.1979767033
 20
-235.4000931833
 10
735.1521077904
 20
-237.2115912733
 10
733.9405147454
 20
-238.8906914677
 10
732.6000112101
 20
-240.3863751569
 10
731.1713277059
 20
-241.6531967486
 10
729.6978740583
 20
-242.65266451
 10
728.2244204107
 20
-243.3544101188
 10
726.7957369065
 20
-243.7371113899
 10
725.4552333712
 20
-243.7891401387
 10
724.2436403262
 20
-243.508915498
 10
723.1977714133
 20
-242.9049519519
 10
722.34940483
 20
-241.9956006269
 10
721.7243177656
 20
-240.8084917029
 10
721.3415031745
 20
-239.3796948839
 10
721.2125926841
 20
-237.7526234383
 10
721.3415031745
 20
-235.9767151085
 10
721.7243177656
 20
-234.1059299706
 10
722.34940483
 20
-232.1971108842
 10
723.1977714133
 20
-230.3082563514
 10
724.2436403262
 20
-228.4967582614
 10
725.4552333712
 20
-226.817658067
 10
726.7957369065
 20
-225.3219743779
 10
728.2244204107
 20
-224.0551527861
 10
729.6978740583
 20
-223.0556850247
 10
731.1713277059
 20
-222.3539394159
 10
732.6000112101
 20
-221.9712381449
 10
733.9405147454
 20
-221.9192093961
 10
735.1521077904
 20
-222.1994340367
 10
736.1979767033
 20
-222.8033975829
 10
737.0463432867
 20
-223.7127489079
 10
737.671430351
 20
-224.8998578318
 10
738.0542449422
 20
-226.3286546508
 10
738.1831554326
 20
-227.9557260964
  0
LWPOLYLINE
  5
190
330
1F
100
AcDbEntity
  8
0
  6
Continuous
 62
     7
370
    25
100
AcDbPolyline
 90
       37
 70
   128
 43
0.0
 10
676.3113120787
 20
-139.9231908827
 10
676.1824015883
 20
-141.6990992125
 10
675.7995869972
 20
-143.5698843504
 10
675.1744999328
 20
-145.4787034368
 10
674.3261333495
 20
-147.3675579696
 10
673.2802644366
 20
-149.1790560596
 10
672.0686713916
 20
-150.858156254
 10
670.7281678563
 20
-152.3538399431
 10
669.2994843521
 20
-153.6206615349
 10
667.8260307045
 20
-154.6201292963
 10
666.3525770569
 20
-155.3218749051
 10
664.9238935527
 20
-155.7045761761
 10
663.5833900174
 20
-155.7566049249
 10
662.3717969724
 20
-155.4763802843
 10
661.3259280595
 20
-154.8724167381
 10
660.4775614761
 20
-153.9630654131
 10
659.8524744118
 20
-152.7759564892
 10
659.4696598207
 20
-151.3471596702
 10
659.3407493303
 20
-149.7200882246
 10
659.4696598207
 20
-147.9441798948
 10
659.8524744118
 20
-146.0733947569
 10
660.4775614761
 20
-144.1645756705
 10
661.3259280595
 20
-142.2757211377
 10
662.3717969724
 20
-140.4642230477
 10
663.5833900174
 20
-138.7851228533
 10
664.9238935527
 20
-137.2894391641
 10
666.3525770569
 20
-136.0226175724
 10
667.8260307045
 20
-135.023149811
 10
669.2994843521
 20
-134.3214042022
 10
670.7281678563
 20
-133.9387029311
 10
672.0686713916
 20
-133.8866741823
 10
673.2802644366
 20
-134.166898823
 10
674.3261333495
 20
-134.7708623692
 10
675.1744999328
 20
-135.6802136941
 10
675.7995869972
 20
-136.8673226181
 10
676.1824015883
 20
-138.2961194371
 10
676.3113120787
 20
-139.9231908827
  0
LWPOLYLINE
  5
191
330
1F
100
AcDbEntity
  8
0
  6
Continuous
 62
     7
370
    25
100
AcDbPolyline
 90
       37
 70
   128
 43
0.0
 10
614.4394687249
 20
-156.4967938009
 10
614.3105582345
 20
-158.2727021307
 10
613.9277436433
 20
-160.1434872686
 10
613.302656579
 20
-162.052306355
 10
612.4542899957
 20
-163.9411608878
 10
611.4084210827
 20
-165.7526589778
 10
610.1968280378
 20
-167.4317591722
 10
608.8563245024
 20
-168.9274428613
 10
607.4276409983
 20
-170.1942644531
 10
605.9541873507
 20
-171.1937322145
 10
604.480733703
 20
-171.8954778233
 10
603.0520501989
 20
-172.2781790943
 10
601.7115466635
 20
-172.3302078431
 10
600.4999536186
 20
-172.0499832025
 10
599.4540847056
 20
-171.4460196563
 10
598.6057181223
 20
-170.5366683313
 10
597.980631058
 20
-169.3495594074
 10
597.5978164668
 20
-167.9207625884
 10
597.4689059764
 20
-166.2936911428
 10
597.5978164668
 20
-164.517782813
 10
597.980631058
 20
-162.6469976751
 10
598.6057181223
 20
-160.7381785887
 10
599.4540847056
 20
-158.8493240559
 10
600.4999536186
 20
-157.0378259659
 10
601.7115466635
 20
-155.3587257715
 10
603.0520501989
 20
-153.8630420823
 10
604.480733703
 20
-152.5962204906
 10
605.9541873507
 20
-151.5967527292
 10
607.4276409983
 20
-150.8950071204
 10
608.8563245024
 20
-150.5123058493
 10
610.1968280378
 20
-150.4602771005
 10
611.4084210827
 20
-150.7405017412
 10
612.4542899957
 20
-151.3444652874
 10
613.302656579
 20
-152.2538166124
 10
613.9277436433
 20
-153.4409255363
 10
614.3105582345
 20
-154.8697223553
 10
614.4394687249
 20
-156.4967938009
  0
LWPOLYLINE
  5
192
330
1F
100
AcDbEntity
  8
0
  6
Continuous
 62
     7
370
    25
100
AcDbPolyline
 90
      128
 70
   128
 43
0.0
 10
708.4846706227
 20
-245.1002964447
 10
708.3592159858
 20
-251.0279620544
 10
707.9831590837
 20
-257.0859685136
 10
707.3574201906
 20
-263.2594908654
 10
706.4835305945
 20
-269.533421466
 10
705.3636288496
 20
-275.8924069561
 10
704.0004555432
 20
-282.3208858324
 10
702.3973465887
 20
-288.8031265299
 10
700.5582250625
 20
-295.3232659195
 10
698.487591603
 20
-301.8653481274
 10
696.1905133974
 20
-308.4133635822
 10
693.6726117809
 20
-314.9512881929
 10
690.9400484807
 20
-321.4631225623
 10
687.9995105371
 20
-327.9329311406
 10
684.8581939393
 20
-334.3448812219
 10
681.5237860152
 20
-340.6832816901
 10
678.0044466199
 20
-346.9326214169
 10
674.3087881666
 20
-353.0776072209
 10
670.4458545509
 20
-359.1032012921
 10
666.4250990185
 20
-364.9946579922
 10
662.2563610321
 20
-370.7375599392
 10
657.949842192
 20
-376.3178532898
 10
653.5160812716
 20
-381.7218821311
 10
648.9659284267
 20
-386.9364218989
 10
644.3105186438
 20
-391.9487117406
 10
639.5612444909
 20
-396.746485743
 10
634.7297282376
 20
-401.3180029493
 10
629.8277934137
 20
-405.6520760907
 10
624.8674358753
 20
-409.738098964
 10
619.8607944484
 20
-413.5660723865
 10
614.8201212236
 20
-417.1266286658
 10
609.7577515729
 20
-420.411054524
 10
604.6860739632
 20
-423.4113124208
 10
599.6174996395
 20
-426.1200602221
 10
594.5644322524
 20
-428.5306691684
 10
589.5392375047
 20
-430.6372400954
 10
584.5542128899
 20
-432.4346178713
 10
579.6215575986
 20
-433.9184040113
 10
574.753342665
 20
-435.0849674422
 10
569.9614814266
 20
-435.9314533876
 10
565.257700371
 20
-436.4557903548
 10
560.6535104387
 20
-436.6566952033
 10
556.1601788538
 20
-436.5336762851
 10
551.7887015518
 20
-436.0870346484
 10
547.5497762701
 20
-435.3178632999
 10
543.4537763692
 20
-434.2280445308
 10
539.5107254473
 20
-432.8202453103
 10
535.7302728107
 20
-431.0979107591
 10
532.1216698605
 20
-429.0652557183
 10
528.6937474529
 20
-426.7272544355
 10
525.4548942883
 20
-424.0896283915
 10
522.4130363832
 20
-421.1588322994
 10
519.5756176736
 20
-417.9420383082
 10
516.9495817987
 20
-414.4471184519
 10
514.5413551081
 20
-410.6826253851
 10
512.3568309363
 20
-406.657771453
 10
510.4013551798
 20
-402.3824061478
 10
508.6797132156
 20
-397.8669920047
 10
507.19611819
 20
-393.1225789988
 10
505.9542007087
 20
-388.1607775038
 10
504.9569999518
 20
-382.9937298793
 10
504.2069562368
 20
-377.6340807568
 10
503.7059050462
 20
-372.0949460958
 10
503.4550725363
 20
-366.3898810871
 10
503.4550725363
 20
-360.5328469806
 10
503.7059050462
 20
-354.5381769203
 10
504.2069562368
 20
-348.4205408684
 10
504.9569999518
 20
-342.1949097055
 10
505.9542007087
 20
-335.8765185942
 10
507.19611819
 20
-329.4808296964
 10
508.6797132156
 20
-323.0234943346
 10
510.4013551798
 20
-316.5203146904
 10
512.3568309363
 20
-309.9872051341
 10
514.5413551081
 20
-303.4401532797
 10
516.9495817987
 20
-296.8951808601
 10
519.5756176736
 20
-290.3683045196
 10
522.4130363832
 20
-283.8754966183
 10
525.4548942883
 20
-277.4326461451
 10
528.6937474529
 20
-271.0555198349
 10
532.1216698605
 20
-264.7597235842
 10
535.7302728107
 20
-258.5606642615
 10
539.5107254473
 20
-252.4735120038
 10
543.4537763692
 20
-246.5131630926
 10
547.5497762701
 20
-240.6942035006
 10
551.7887015518
 20
-235.030873197
 10
556.1601788538
 20
-229.5370313
 10
560.6535104387
 20
-224.2261221613
 10
565.257700371
 20
-219.1111424656
 10
569.9614814266
 20
-214.2046094253
 10
574.753342665
 20
-209.518530149
 10
579.6215575986
 20
-205.0643722579
 10
584.5542128899
 20
-200.8530358227
 10
589.5392375047
 20
-196.8948266894
 10
594.5644322524
 20
-193.1994312591
 10
599.6174996395
 20
-189.7758927836
 10
604.6860739632
 20
-186.6325892352
 10
609.7577515729
 20
-183.7772128044
 10
614.8201212236
 20
-181.2167510759
 10
619.8607944484
 20
-178.9574699286
 10
624.8674358753
 20
-177.0048982019
 10
629.8277934137
 20
-175.3638141663
 10
634.7297282376
 20
-174.0382338291
 10
639.5612444909
 20
-173.0314011078
 10
644.3105186439
 20
-172.3457798906
 10
648.9659284267
 20
-171.9830480076
 10
653.5160812716
 20
-171.9440931245
 10
657.949842192
 20
-172.2290105704
 10
662.2563610321
 20
-172.8371031045
 10
666.4250990185
 20
-173.7668826226
 10
670.4458545509
 20
-175.0160737983
 10
674.3087881666
 20
-176.5816196516
 10
678.0044466199
 20
-178.4596890293
 10
681.5237860152
 20
-180.645685981
 10
684.8581939393
 20
-183.1342610059
 10
687.9995105371
 20
-185.9193241438
 10
690.9400484807
 20
-188.9940598786
 10
693.6726117809
 20
-192.3509438166
 10
696.1905133974
 20
-195.9817611004
 10
698.487591603
 20
-199.8776265116
 10
700.5582250625
 20
-204.0290062148
 10
702.3973465887
 20
-208.4257410881
 10
704.0004555432
 20
-213.0570715845
 10
705.3636288496
 20
-217.9116640624
 10
706.4835305945
 20
-222.9776385202
 10
707.3574201906
 20
-228.2425976698
 10
707.9831590837
 20
-233.6936572736
 10
708.3592159858
 20
-239.3174776756
 10
708.4846706227
 20
-245.1002964447
  0
LWPOLYLINE
  5
193
330
1F
100
AcDbEntity
  8
0
  6
Continuous
 62
     7
370
    25
100
AcDbPolyline
 90
       37
 70
   128
 43
0.0
 10
721.6046449717
 20
-308.9736175102
 10
721.4757344813
 20
-310.74952584
 10
721.0929198901
 20
-312.6203109779
 10
720.4678328258
 20
-314.5291300643
 10
719.6194662425
 20
-316.4179845971
 10
718.5735973295
 20
-318.2294826871
 10
717.3620042845
 20
-319.9085828815
 10
716.0215007492
 20
-321.4042665706
 10
714.5928172451
 20
-322.6710881624
 10
713.1193635974
 20
-323.6705559238
 10
711.6459099498
 20
-324.3723015326
 10
710.2172264456
 20
-324.7550028036
 10
708.8767229103
 20
-324.8070315524
 10
707.6651298654
 20
-324.5268069118
 10
706.6192609524
 20
-323.9228433656
 10
705.7708943691
 20
-323.0134920406
 10
705.1458073048
 20
-321.8263831167
 10
704.7629927136
 20
-320.3975862977
 10
704.6340822232
 20
-318.7705148521
 10
704.7629927136
 20
-316.9946065223
 10
705.1458073048
 20
-315.1238213844
 10
705.7708943691
 20
-313.215002298
 10
706.6192609524
 20
-311.3261477652
 10
707.6651298654
 20
-309.5146496752
 10
708.8767229103
 20
-307.8355494808
 10
710.2172264456
 20
-306.3398657916
 10
711.6459099498
 20
-305.0730441999
 10
713.1193635974
 20
-304.0735764385
 10
714.5928172451
 20
-303.3718308297
 10
716.0215007492
 20
-302.9891295586
 10
717.3620042845
 20
-302.9371008098
 10
718.5735973295
 20
-303.2173254505
 10
719.6194662425
 20
-303.8212889967
 10
720.4678328258
 20
-304.7306403217
 10
721.0929198901
 20
-305.9177492456
 10
721.4757344813
 20
-307.3465460646
 10
721.6046449717
 20
-308.9736175102
  0
LWPOLYLINE
  5
194
330
1F
100
AcDbEntity
  8
0
  6
Continuous
 62
     7
370
    25
100
AcDbPolyline
 90
       37
 70
   128
 43
0.0
 10
721.6046449717
 20
-166.0789754302
 10
721.4757344813
 20
-167.8548837599
 10
721.0929198901
 20
-169.7256688979
 10
720.4678328258
 20
-171.6344879843
 10
719.6194662425
 20
-173.523342517
 10
718.5735973295
 20
-175.334840607
 10
717.3620042846
 20
-177.0139408015
 10
716.0215007492
 20
-178.5096244906
 10
714.5928172451
 20
-179.7764460824
 10
713.1193635974
 20
-180.7759138437
 10
711.6459099498
 20
-181.4776594526
 10
710.2172264457
 20
-181.8603607236
 10
708.8767229103
 20
-181.9123894724
 10
707.6651298654
 20
-181.6321648318
 10
706.6192609524
 20
-181.0282012856
 10
705.7708943691
 20
-180.1188499606
 10
705.1458073048
 20
-178.9317410366
 10
704.7629927136
 20
-177.5029442177
 10
704.6340822232
 20
-175.875872772
 10
704.7629927136
 20
-174.0999644423
 10
705.1458073048
 20
-172.2291793043
 10
705.7708943691
 20
-170.320360218
 10
706.6192609524
 20
-168.4315056852
 10
707.6651298654
 20
-166.6200075952
 10
708.8767229103
 20
-164.9409074007
 10
710.2172264457
 20
-163.4452237116
 10
711.6459099498
 20
-162.1784021199
 10
713.1193635974
 20
-161.1789343585
 10
714.5928172451
 20
-160.4771887497
 10
716.0215007492
 20
-160.0944874786
 10
717.3620042846
 20
-160.0424587298
 10
718.5735973295
 20
-160.3226833704
 10
719.6194662425
 20
-160.9266469166
 10
720.4678328258
 20
-161.8359982416
 10
721.0929198901
 20
-163.0231071656
 10
721.4757344813
 20
-164.4519039845
 10
721.6046449717
 20
-166.0789754302
  0
LWPOLYLINE
  5
195
330
1F
100
AcDbEntity
  8
0
  6
Continuous
 62
     7
370
    25
100
AcDbPolyline
 90
       37
 70
   128
 43
0.0
 10
676.3113120787
 20
-387.4239710947
 10
676.1824015883
 20
-389.1998794244
 10
675.7995869971
 20
-391.0706645624
 10
675.1744999328
 20
-392.9794836488
 10
674.3261333495
 20
-394.8683381815
 10
673.2802644365
 20
-396.6798362715
 10
672.0686713916
 20
-398.358936466
 10
670.7281678563
 20
-399.8546201551
 10
669.2994843521
 20
-401.1214417468
 10
667.8260307045
 20
-402.1209095082
 10
666.3525770568
 20
-402.8226551171
 10
664.9238935527
 20
-403.2053563881
 10
663.5833900174
 20
-403.2573851369
 10
662.3717969724
 20
-402.9771604963
 10
661.3259280594
 20
-402.3731969501
 10
660.4775614761
 20
-401.4638456251
 10
659.8524744118
 20
-400.2767367011
 10
659.4696598206
 20
-398.8479398822
 10
659.3407493302
 20
-397.2208684365
 10
659.4696598206
 20
-395.4449601068
 10
659.8524744118
 20
-393.5741749688
 10
660.4775614761
 20
-391.6653558825
 10
661.3259280594
 20
-389.7765013497
 10
662.3717969724
 20
-387.9650032597
 10
663.5833900174
 20
-386.2859030652
 10
664.9238935527
 20
-384.7902193761
 10
666.3525770568
 20
-383.5233977844
 10
667.8260307045
 20
-382.523930023
 10
669.2994843521
 20
-381.8221844141
 10
670.7281678563
 20
-381.4394831431
 10
672.0686713916
 20
-381.3874543943
 10
673.2802644365
 20
-381.6676790349
 10
674.3261333495
 20
-382.2716425811
 10
675.1744999328
 20
-383.1809939061
 10
675.7995869971
 20
-384.3681028301
 10
676.1824015883
 20
-385.796899649
 10
676.3113120787
 20
-387.4239710947
  0
LWPOLYLINE
  5
196
330
1F
100
AcDbEntity
  8
0
  6
Continuous
 62
     7
370
    25
100
AcDbPolyline
 90
       37
 70
   128
 43
0.0
 10
552.5676253711
 20
-458.8596808791
 10
552.4387148807
 20
-460.6355892089
 10
552.0559002895
 20
-462.5063743469
 10
551.4308132252
 20
-464.4151934332
 10
550.5824466419
 20
-466.304047966
 10
549.5365777289
 20
-468.115546056
 10
548.3249846839
 20
-469.7946462505
 10
546.9844811486
 20
-471.2903299396
 10
545.5557976444
 20
-472.5571515313
 10
544.0823439968
 20
-473.5566192927
 10
542.6088903492
 20
-474.2583649015
 10
541.180206845
 20
-474.6410661726
 10
539.8397033097
 20
-474.6930949214
 10
538.6281102648
 20
-474.4128702807
 10
537.5822413518
 20
-473.8089067346
 10
536.7338747685
 20
-472.8995554096
 10
536.1087877042
 20
-471.7124464856
 10
535.725973113
 20
-470.2836496666
 10
535.5970626226
 20
-468.656578221
 10
535.725973113
 20
-466.8806698913
 10
536.1087877042
 20
-465.0098847533
 10
536.7338747685
 20
-463.1010656669
 10
537.5822413518
 20
-461.2122111342
 10
538.6281102648
 20
-459.4007130441
 10
539.8397033097
 20
-457.7216128497
 10
541.180206845
 20
-456.2259291606
 10
542.6088903492
 20
-454.9591075688
 10
544.0823439968
 20
-453.9596398075
 10
545.5557976444
 20
-453.2578941986
 10
546.9844811486
 20
-452.8751929276
 10
548.3249846839
 20
-452.8231641788
 10
549.5365777289
 20
-453.1033888194
 10
550.5824466419
 20
-453.7073523656
 10
551.4308132252
 20
-454.6167036906
 10
552.0559002895
 20
-455.8038126146
 10
552.4387148807
 20
-457.2326094335
 10
552.5676253711
 20
-458.8596808791
  0
LWPOLYLINE
  5
197
330
1F
100
AcDbEntity
  8
0
  6
Continuous
 62
     7
370
    25
100
AcDbPolyline
 90
       37
 70
   128
 43
0.0
 10
490.6957820172
 20
-370.8271456654
 10
490.5668715268
 20
-372.6030539952
 10
490.1840569357
 20
-374.4738391331
 10
489.5589698713
 20
-376.3826582195
 10
488.710603288
 20
-378.2715127523
 10
487.6647343751
 20
-380.0830108423
 10
486.4531413301
 20
-381.7621110367
 10
485.1126377948
 20
-383.2577947258
 10
483.6839542906
 20
-384.5246163176
 10
482.210500643
 20
-385.524084079
 10
480.7370469954
 20
-386.2258296878
 10
479.3083634912
 20
-386.6085309588
 10
477.9678599559
 20
-386.6605597076
 10
476.7562669109
 20
-386.380335067
 10
475.710397998
 20
-385.7763715208
 10
474.8620314146
 20
-384.8670201958
 10
474.2369443503
 20
-383.6799112719
 10
473.8541297592
 20
-382.2511144529
 10
473.7252192688
 20
-380.6240430073
 10
473.8541297592
 20
-378.8481346775
 10
474.2369443503
 20
-376.9773495396
 10
474.8620314146
 20
-375.0685304532
 10
475.710397998
 20
-373.1796759204
 10
476.7562669109
 20
-371.3681778304
 10
477.9678599559
 20
-369.689077636
 10
479.3083634912
 20
-368.1933939468
 10
480.7370469954
 20
-366.9265723551
 10
482.210500643
 20
-365.9271045937
 10
483.6839542906
 20
-365.2253589849
 10
485.1126377948
 20
-364.8426577138
 10
486.4531413301
 20
-364.790628965
 10
487.6647343751
 20
-365.0708536057
 10
488.710603288
 20
-365.6748171519
 10
489.5589698713
 20
-366.5841684769
 10
490.1840569357
 20
-367.7712774008
 10
490.5668715268
 20
-369.2000742198
 10
490.6957820172
 20
-370.8271456654
  0
LWPOLYLINE
  5
198
330
1F
100
AcDbEntity
  8
0
  6
Continuous
 62
     7
370
    25
100
AcDbPolyline
 90
       37
 70
   128
 43
0.0
 10
552.5676253711
 20
-211.3589006672
 10
552.4387148807
 20
-213.1348089969
 10
552.0559002895
 20
-215.0055941349
 10
551.4308132252
 20
-216.9144132213
 10
550.5824466419
 20
-218.803267754
 10
549.5365777289
 20
-220.614765844
 10
548.324984684
 20
-222.2938660385
 10
546.9844811486
 20
-223.7895497276
 10
545.5557976445
 20
-225.0563713194
 10
544.0823439968
 20
-226.0558390807
 10
542.6088903492
 20
-226.7575846896
 10
541.1802068451
 20
-227.1402859606
 10
539.8397033097
 20
-227.1923147094
 10
538.6281102648
 20
-226.9120900688
 10
537.5822413518
 20
-226.3081265226
 10
536.7338747685
 20
-225.3987751976
 10
536.1087877042
 20
-224.2116662736
 10
535.725973113
 20
-222.7828694547
 10
535.5970626226
 20
-221.155798009
 10
535.725973113
 20
-219.3798896793
 10
536.1087877042
 20
-217.5091045413
 10
536.7338747685
 20
-215.600285455
 10
537.5822413518
 20
-213.7114309222
 10
538.6281102648
 20
-211.8999328322
 10
539.8397033097
 20
-210.2208326377
 10
541.1802068451
 20
-208.7251489486
 10
542.6088903492
 20
-207.4583273569
 10
544.0823439968
 20
-206.4588595955
 10
545.5557976445
 20
-205.7571139867
 10
546.9844811486
 20
-205.3744127156
 10
548.324984684
 20
-205.3223839668
 10
549.5365777289
 20
-205.6026086074
 10
550.5824466419
 20
-206.2065721536
 10
551.4308132252
 20
-207.1159234786
 10
552.0559002895
 20
-208.3030324026
 10
552.4387148807
 20
-209.7318292215
 10
552.5676253711
 20
-211.3589006672
  0
ARC
  5
199
330
1F
100
AcDbEntity
  8
0
  6
Continuous
 62
     7
370
    25
100
AcDbCircle
 10
653.8581028346
 20
-222.9383405817
 30
0.0
 40
49.5691481754007
100
AcDbArc
 50
37.8863519018
 51
82.3535158167
  0
ARC
  5
19A
330
1F
100
AcDbEntity
  8
0
  6
Continuous
 62
     7
370
    25
100
AcDbCircle
 10
559.5057633988
 20
-386.4031864077
 30
0.0
 40
49.63405959806755
100
AcDbArc
 50
218.1486114295
 51
263.1810995383
  0
ARC
  5
19B
330
1F
100
AcDbEntity
  8
0
  6
Continuous
 62
     7
370
    25
100
AcDbCircle
 10
581.9107395507
 20
-395.4335541151
 30
0.0
 40
53.16688481680931
100
AcDbArc
 50
217.5507318656
 51
226.4066353154
  0
ARC
  5
19C
330
1F
100
AcDbEntity
  8
0
  6
Continuous
 62
     7
370
    25
100
AcDbCircle
 10
672.9624968132
 20
-237.4491888549
 30
0.0
 40
52.71523039998695
100
AcDbArc
 50
73.5715478954
 51
81.340176726
  0
LINE
  5
19D
330
1F
100
AcDbEntity
  8
0
  6
Continuous
 62
     7
370
    25
100
AcDbLine
 10
719.467120867
 20
-304.8394769756
 30
0.0
 11
719.3260234081
 21
-304.7537327509
 31
0.0
  0
LINE
  5
19E
330
1F
100
AcDbEntity
  8
0
  6
Continuous
 62
     7
370
    25
100
AcDbLine
 10
674.1737879741
 20
-383.2898305601
 30
0.0
 11
674.0326905152
 21
-383.2040863353
 31
0.0
  0
LINE
  5
19F
330
1F
100
AcDbEntity
  8
0
  6
Continuous
 62
     7
370
    25
100
AcDbLine
 10
736.0456313279
 20
-223.8215855618
 30
0.0
 11
735.904533869
 21
-223.7358413371
 31
0.0
  0
LINE
  5
1A0
330
1F
100
AcDbEntity
  8
0
  6
Continuous
 62
     7
370
    25
100
AcDbLine
 10
612.3019446203
 20
-438.1519374263
 30
0.0
 11
612.1608471613
 21
-438.0661932016
 31
0.0
  0
LINE
  5
1A1
330
1F
100
AcDbEntity
  8
0
  6
Continuous
 62
     7
370
    25
100
AcDbLine
 10
719.467120867
 20
-161.9448348956
 30
0.0
 11
719.3260234081
 21
-161.8590906708
 31
0.0
  0
LINE
  5
1A2
330
1F
100
AcDbEntity
  8
0
  6
Continuous
 62
     7
370
    25
100
AcDbLine
 10
550.4301012664
 20
-454.7255403445
 30
0.0
 11
550.2890038075
 21
-454.6397961198
 31
0.0
  0
LINE
  5
1A3
330
1F
100
AcDbEntity
  8
0
  6
Continuous
 62
     7
370
    25
100
AcDbLine
 10
674.1737879741
 20
-135.7890503481
 30
0.0
 11
674.0326905152
 21
-135.7033061234
 31
0.0
  0
LINE
  5
1A4
330
1F
100
AcDbEntity
  8
0
  6
Continuous
 62
     7
370
    25
100
AcDbLine
 10
505.1367683735
 20
-428.5697557971
 30
0.0
 11
504.9956709146
 21
-428.4840115723
 31
0.0
  0
LINE
  5
1A5
330
1F
100
AcDbEntity
  8
0
  6
Continuous
 62
     7
370
    25
100
AcDbLine
 10
612.3019446203
 20
-152.3626532663
 30
0.0
 11
612.1608471614
 21
-152.2769090416
 31
0.0
  0
LINE
  5
1A6
330
1F
100
AcDbEntity
  8
0
  6
Continuous
 62
     7
370
    25
100
AcDbLine
 10
488.5582579126
 20
-366.6930051308
 30
0.0
 11
488.4171604537
 21
-366.6072609061
 31
0.0
  0
LINE
  5
1A7
330
1F
100
AcDbEntity
  8
0
  6
Continuous
 62
     7
370
    25
100
AcDbLine
 10
550.4301012664
 20
-207.2247601326
 30
0.0
 11
550.2890038075
 21
-207.1390159078
 31
0.0
  0
LINE
  5
1A8
330
1F
100
AcDbEntity
  8
0
  6
Continuous
 62
     7
370
    25
100
AcDbLine
 10
505.1367683735
 20
-285.675113717
 30
0.0
 11
504.9956709146
 21
-285.5893694923
 31
0.0
  0
LWPOLYLINE
  5
1A9
330
1F
100
AcDbEntity
  8
0
  6
Continuous
 62
     1
370
    25
100
AcDbPolyline
 90
       51
 70
   128
 43
0.0
 10
746.3148834162
 20
-224.0777875653
 10
746.1907339235
 20
-230.9479070467
 10
745.8185061787
 20
-237.9491516595
 10
745.1988619892
 20
-245.0690734464
 10
744.3329030596
 20
-252.2950134462
 10
743.2221690335
 20
-259.6141242013
 10
741.8686347553
 20
-267.0133925999
 10
740.2747067595
 20
-274.4796630127
 10
738.4432189921
 20
-281.9996606835
 10
736.3774277714
 20
-289.5600153308
 10
734.0810059988
 20
-297.14728492
 10
731.5580366285
 20
-304.7479795625
 10
728.8130054078
 20
-312.3485855008
 10
725.8507929022
 20
-319.9355891348
 10
722.6766658174
 20
-327.4955010489
 10
719.2962676354
 20
-335.0148799956
 10
715.7156085809
 20
-342.4803567936
 10
711.9410549351
 20
-349.8786580975
 10
707.9793177165
 20
-357.1966299977
 10
703.8374407494
 20
-364.4212614071
 10
699.5227881399
 20
-371.5397071947
 10
695.0430311828
 20
-378.5393110238
 10
690.4061347226
 20
-385.407627854
 10
685.6203429919
 20
-392.1324460689
 10
680.6941649537
 20
-398.7018091869
 10
675.6363591729
 20
-405.1040371202
 10
670.4559182436
 20
-411.3277469411
 10
665.1620528007
 20
-417.3618731208
 10
659.7641751437
 20
-423.1956872031
 10
654.2718825022
 20
-428.8188168794
 10
648.694939972
 20
-434.2212644303
 10
643.0432631535
 20
-439.3934245014
 10
637.3269005217
 20
-444.3261011806
 10
631.5560155608
 20
-449.010524349
 10
625.7408686937
 20
-453.4383652729
 10
619.8917990393
 20
-457.601751413
 10
614.01920603
 20
-461.4932804205
 10
608.1335309218
 20
-465.1060332989
 10
602.2452382304
 20
-468.4335867054
 10
596.3647971252
 20
-471.4700243715
 10
590.502662816
 20
-474.2099476218
 10
584.6692579635
 20
-476.6484849728
 10
578.8749541488
 20
-478.781300794
 10
573.1300534326
 20
-480.6046030168
 10
567.4447700387
 20
-482.1151498763
 10
561.8292121934
 20
-483.3102556753
 10
556.2933641539
 20
-484.1877955595
 10
550.8470684557
 20
-484.7462092947
 10
545.500008414
 20
-484.9845040419
 10
540.2616909063
 20
-484.9022561216
 10
537.5404742592
 20
-484.7293566118
  0
LWPOLYLINE
  5
1AA
330
1F
100
AcDbEntity
  8
0
  6
Continuous
 62
     1
370
    25
100
AcDbPolyline
 90
       14
 70
   128
 43
0.0
 10
727.5949544725
 20
-154.2313780893
 10
728.8130054078
 20
-156.014227855
 10
731.5580366285
 20
-160.4454882073
 10
734.0810059988
 20
-165.133224419
 10
736.3774277714
 20
-170.0691018659
 10
738.4432189921
 20
-175.2443447384
 10
740.2747067595
 20
-180.6497516432
 10
741.8686347553
 20
-186.2757119643
 10
743.2221690335
 20
-192.1122229494
 10
744.3329030596
 20
-198.1489074951
 10
745.1988619892
 20
-204.3750325966
 10
745.8185061787
 20
-210.7795284305
 10
746.1907339235
 20
-217.351008037
 10
746.3148834162
 20
-224.0777875653
  0
LWPOLYLINE
  5
1AB
330
1F
100
AcDbEntity
  8
0
  6
Continuous
 62
     1
370
    25
100
AcDbPolyline
 90
       14
 70
   128
 43
0.0
 10
766.1138732894
 20
-235.5075011308
 10
765.9897237967
 20
-228.7807216025
 10
765.6174960519
 20
-222.209241996
 10
764.9978518624
 20
-215.8047461621
 10
764.1318929329
 20
-209.5786210607
 10
763.0211589067
 20
-203.5419365149
 10
761.6676246285
 20
-197.7054255298
 10
760.0736966328
 20
-192.0794652087
 10
758.2422088653
 20
-186.6740583039
 10
756.1764176446
 20
-181.4988154315
 10
753.8799958721
 20
-176.5629379845
 10
751.3570265017
 20
-171.8752017729
 10
748.611995281
 20
-167.4439414206
 10
747.7963751398
 20
-166.2388218613
  0
LWPOLYLINE
  5
1AC
330
1F
100
AcDbEntity
  8
0
  6
Continuous
 62
     1
370
    25
100
AcDbPolyline
 90
       51
 70
   128
 43
0.0
 10
557.3528446197
 20
-496.160145812
 10
560.0606807795
 20
-496.3319696872
 10
565.2989982872
 20
-496.4142176074
 10
570.6460583289
 20
-496.1759228602
 10
576.0923540271
 20
-495.617509125
 10
581.6282020667
 20
-494.7399692409
 10
587.2437599119
 20
-493.5448634418
 10
592.9290433058
 20
-492.0343165823
 10
598.673944022
 20
-490.2110143595
 10
604.4682478367
 20
-488.0781985383
 10
610.3016526892
 20
-485.6396611873
 10
616.1637869985
 20
-482.899737937
 10
622.0442281036
 20
-479.8633002709
 10
627.9325207951
 20
-476.5357468644
 10
633.8181959032
 20
-472.922993986
 10
639.6907889125
 20
-469.0314649785
 10
645.5398585669
 20
-464.8680788385
 10
651.355005434
 20
-460.4402379145
 10
657.1258903949
 20
-455.7558147461
 10
662.8422530267
 20
-450.8231380669
 10
668.4939298452
 20
-445.6509779958
 10
674.0708723754
 20
-440.2485304449
 10
679.563165017
 20
-434.6254007686
 10
684.9610426739
 20
-428.7915866863
 10
690.2549081169
 20
-422.7574605067
 10
695.4353490462
 20
-416.5337506857
 10
700.4931548269
 20
-410.1315227524
 10
705.4193328651
 20
-403.5621596344
 10
710.2051245958
 20
-396.8373414196
 10
714.842021056
 20
-389.9690245893
 10
719.3217780131
 20
-382.9694207602
 10
723.6364306227
 20
-375.8509749726
 10
727.7783075898
 20
-368.6263435632
 10
731.7400448083
 20
-361.308371663
 10
735.5145984542
 20
-353.9100703591
 10
739.0952575086
 20
-346.4445935611
 10
742.4756556906
 20
-338.9252146144
 10
745.6497827754
 20
-331.3653027003
 10
748.611995281
 20
-323.7782990663
 10
751.3570265017
 20
-316.177693128
 10
753.8799958721
 20
-308.5769984855
 10
756.1764176446
 20
-300.9897288963
 10
758.2422088653
 20
-293.429374249
 10
760.0736966328
 20
-285.9093765782
 10
761.6676246285
 20
-278.4431061654
 10
763.0211589067
 20
-271.0438377668
 10
764.1318929329
 20
-263.7247270118
 10
764.9978518624
 20
-256.4987870119
 10
765.6174960519
 20
-249.3788652251
 10
765.9897237967
 20
-242.3776206122
 10
766.1138732894
 20
-235.5075011308
  0
LWPOLYLINE
  5
1AD
330
1F
100
AcDbEntity
  8
0
  6
Continuous
 62
     1
370
    25
100
AcDbPolyline
 90
       56
 70
   128
 43
0.0
 10
660.453799558
 20
-173.8099655265
 10
658.2983582502
 20
-173.5479792744
 10
653.8951749912
 20
-173.2650267765
 10
649.3764025108
 20
-173.3037130052
 10
644.7530990023
 20
-173.663943289
 10
640.0365784642
 20
-174.344836084
 10
635.2383830126
 20
-175.3447251314
 10
630.3702546358
 20
-176.6611635352
 10
625.4441064597
 20
-178.2909297499
 10
620.4719935944
 20
-180.2300354646
 10
615.4660836332
 20
-182.4737353627
 10
610.4386268767
 20
-185.0165387344
 10
605.401926354
 20
-187.8522229139
 10
600.3683077152
 20
-190.9738485068
 10
595.3500890687
 20
-194.3737763722
 10
590.3595508365
 20
-198.0436863168
 10
585.4089057018
 20
-201.9745974561
 10
580.5102687229
 20
-206.1568901917
 10
575.6756276854
 20
-210.5803297525
 10
570.9168137659
 20
-215.2340912407
 10
566.2454725797
 20
-220.1067861221
 10
561.6730356813
 20
-225.1864900958
 10
557.2106925901
 20
-230.4607722749
 10
552.8693634074
 20
-235.9167256071
 10
548.6596720932
 20
-241.5409984604
 10
544.5919204675
 20
-247.3198272966
 10
540.6760630003
 20
-253.2390703531
 10
536.9216824508
 20
-259.2842422504
 10
533.3379664175
 20
-265.4405494399
 10
529.933684854
 20
-271.6929264061
 10
526.7171686078
 20
-278.0260725349
 10
523.6962890331
 20
-284.4244895565
 10
520.8784387285
 20
-290.8725194723
 10
518.2705134457
 20
-297.3543828725
 10
515.8788952151
 20
-303.8542175513
 10
513.7094367272
 20
-310.356117324
 10
511.7674470104
 20
-316.8441709522
 10
510.0576784391
 20
-323.3025010816
 10
508.5843151033
 20
-329.7153030962
 10
507.3509625701
 20
-336.0668837947
 10
506.3606390599
 20
-342.3416997948
 10
505.6157680601
 20
-348.5243955704
 10
505.118172395
 20
-354.5998410288
 10
504.8690697645
 20
-360.553168537
 10
504.8690697645
 20
-366.3698093048
 10
505.118172395
 20
-372.0355290377
 10
505.6157680601
 20
-377.5364627699
 10
506.3606390599
 20
-382.859148795
 10
507.3509625701
 20
-387.9905616083
 10
508.5843151033
 20
-392.9181437826
 10
510.0576784391
 20
-397.6298366988
 10
511.7674470104
 20
-402.1141100547
 10
513.7094367272
 20
-406.359990082
 10
515.8788952151
 20
-410.3570864007
 10
518.2705134457
 20
-414.0956174464
 10
520.4729816716
 20
-417.0623094028
  0
LWPOLYLINE
  5
1AE
330
1F
100
AcDbEntity
  8
0
  6
Continuous
 62
     1
370
    25
100
AcDbPolyline
 90
       56
 70
   128
 43
0.0
 10
539.7592884632
 20
-427.8368380897
 10
538.069503319
 20
-425.525331012
 10
535.6778850883
 20
-421.7867999663
 10
533.5084266004
 20
-417.7897036475
 10
531.5664368837
 20
-413.5438236203
 10
529.8566683123
 20
-409.0595502644
 10
528.3833049765
 20
-404.3478573482
 10
527.1499524434
 20
-399.4202751738
 10
526.1596289331
 20
-394.2888623606
 10
525.4147579333
 20
-388.9661763355
 10
524.9171622682
 20
-383.4652426032
 10
524.6680596377
 20
-377.7995228703
 10
524.6680596377
 20
-371.9828821025
 10
524.9171622682
 20
-366.0295545943
 10
525.4147579333
 20
-359.9541091359
 10
526.1596289331
 20
-353.7714133603
 10
527.1499524434
 20
-347.4965973602
 10
528.3833049765
 20
-341.1450166617
 10
529.8566683123
 20
-334.7322146471
 10
531.5664368837
 20
-328.2738845177
 10
533.5084266004
 20
-321.7858308895
 10
535.6778850883
 20
-315.2839311168
 10
538.069503319
 20
-308.7840964381
 10
540.6774286017
 20
-302.3022330378
 10
543.4952789063
 20
-295.854203122
 10
546.516158481
 20
-289.4557861004
 10
549.7326747273
 20
-283.1226399716
 10
553.1369562907
 20
-276.8702630054
 10
556.720672324
 20
-270.713955816
 10
560.4750528735
 20
-264.6687839186
 10
564.3909103407
 20
-258.7495408621
 10
568.4586619664
 20
-252.9707120259
 10
572.6683532807
 20
-247.3464391726
 10
577.0096824634
 20
-241.8904858404
 10
581.4720255545
 20
-236.6162036613
 10
586.0444624529
 20
-231.5364996876
 10
590.7158036391
 20
-226.6638048063
 10
595.4746175586
 20
-222.010043318
 10
600.3092585962
 20
-217.5866037572
 10
605.2078955751
 20
-213.4043110216
 10
610.1585407097
 20
-209.4733998823
 10
615.149078942
 20
-205.8034899377
 10
620.1672975884
 20
-202.4035620723
 10
625.2009162272
 20
-199.2819364795
 10
630.2376167499
 20
-196.4462522999
 10
635.2650735064
 20
-193.9034489282
 10
640.2709834676
 20
-191.6597490301
 10
645.243096333
 20
-189.7206433154
 10
650.1692445091
 20
-188.0908771007
 10
655.0373728859
 20
-186.7744386969
 10
659.8355683375
 20
-185.7745496495
 10
664.5520888755
 20
-185.0936568545
 10
669.175392384
 20
-184.7334265707
 10
673.6941648645
 20
-184.694740342
 10
678.0973481234
 20
-184.9776928399
 10
680.8997043955
 20
-185.3349273527
  0
LWPOLYLINE
  5
1AF
330
1F
100
AcDbEntity
  8
0
  6
Continuous
 62
     1
370
    25
100
AcDbPolyline
 90
       19
 70
   128
 43
0.0
 10
719.3260234081
 20
-304.7537327509
 10
718.6760829145
 20
-304.4582780638
 10
717.5123035695
 20
-304.2430199314
 10
716.2300585131
 20
-304.3503672825
 10
714.8705601563
 20
-304.7768698849
 10
713.4775038951
 20
-305.5088195941
 10
712.0956637037
 20
-306.5226909441
 10
710.769453063
 20
-307.7858972755
 10
709.5414974741
 20
-309.2578380976
 10
708.4512644401
 20
-310.891204021
 10
707.5337949476
 20
-312.6334973212
 10
706.8185772212
 20
-314.4287192578
 10
706.3285989469
 20
-316.2191699208
 10
706.0796084297
 20
-317.9473027526
 10
706.0796084297
 20
-319.5575741421
 10
706.3285989469
 20
-320.9982286419
 10
706.8185772212
 20
-322.2229624311
 10
707.5337949476
 20
-323.1924115578
 10
708.38283655
 20
-323.8384393962
  0
LWPOLYLINE
  5
1B0
330
1F
100
AcDbEntity
  8
0
  6
Continuous
 62
     1
370
    25
100
AcDbPolyline
 90
       19
 70
   128
 43
0.0
 10
674.0326905152
 20
-383.2040863353
 10
673.3827500215
 20
-382.9086316482
 10
672.2189706766
 20
-382.6933735158
 10
670.9367256201
 20
-382.800720867
 10
669.5772272634
 20
-383.2272234694
 10
668.1841710021
 20
-383.9591731786
 10
666.8023308107
 20
-384.9730445286
 10
665.47612017
 20
-386.23625086
 10
664.2481645811
 20
-387.708191682
 10
663.1579315471
 20
-389.3415576055
 10
662.2404620547
 20
-391.0838509056
 10
661.5252443282
 20
-392.8790728423
 10
661.035266054
 20
-394.6695235053
 10
660.7862755368
 20
-396.3976563371
 10
660.7862755368
 20
-398.0079277266
 10
661.035266054
 20
-399.4485822264
 10
661.5252443282
 20
-400.6733160155
 10
662.2404620547
 20
-401.6427651423
 10
663.0895036571
 20
-402.2887929807
  0
LWPOLYLINE
  5
1B1
330
1F
100
AcDbEntity
  8
0
  6
Continuous
 62
     1
370
    25
100
AcDbPolyline
 90
       19
 70
   128
 43
0.0
 10
735.904533869
 20
-223.7358413371
 10
735.2545933753
 20
-223.44038665
 10
734.0908140304
 20
-223.2251285176
 10
732.808568974
 20
-223.3324758687
 10
731.4490706172
 20
-223.7589784712
 10
730.0560143559
 20
-224.4909281803
 10
728.6741741646
 20
-225.5047995303
 10
727.3479635239
 20
-226.7680058618
 10
726.120007935
 20
-228.2399466838
 10
725.0297749009
 20
-229.8733126072
 10
724.1123054085
 20
-231.6156059074
 10
723.397087682
 20
-233.4108278441
 10
722.9071094078
 20
-235.201278507
 10
722.6581188906
 20
-236.9294113388
 10
722.6581188906
 20
-238.5396827284
 10
722.9071094078
 20
-239.9803372282
 10
723.397087682
 20
-241.2050710173
 10
724.1123054085
 20
-242.1745201441
 10
724.9613470109
 20
-242.8205479825
  0
LWPOLYLINE
  5
1B2
330
1F
100
AcDbEntity
  8
0
  6
Continuous
 62
     1
370
    25
100
AcDbPolyline
 90
       19
 70
   128
 43
0.0
 10
612.1608471613
 20
-438.0661932016
 10
611.5109066677
 20
-437.7707385145
 10
610.3471273227
 20
-437.5554803821
 10
609.0648822663
 20
-437.6628277332
 10
607.7053839096
 20
-438.0893303357
 10
606.3123276483
 20
-438.8212800448
 10
604.9304874569
 20
-439.8351513948
 10
603.6042768162
 20
-441.0983577263
 10
602.3763212273
 20
-442.5702985483
 10
601.2860881933
 20
-444.2036644717
 10
600.3686187008
 20
-445.9459577719
 10
599.6534009744
 20
-447.7411797086
 10
599.1634227001
 20
-449.5316303715
 10
598.9144321829
 20
-451.2597632033
 10
598.9144321829
 20
-452.8700345929
 10
599.1634227001
 20
-454.3106890927
 10
599.6534009744
 20
-455.5354228818
 10
600.3686187008
 20
-456.5048720086
 10
601.2176603033
 20
-457.150899847
  0
LWPOLYLINE
  5
1B3
330
1F
100
AcDbEntity
  8
0
  6
Continuous
 62
     1
370
    25
100
AcDbPolyline
 90
       19
 70
   128
 43
0.0
 10
719.3260234081
 20
-161.8590906708
 10
718.6760829145
 20
-161.5636359837
 10
717.5123035695
 20
-161.3483778513
 10
716.2300585131
 20
-161.4557252025
 10
714.8705601563
 20
-161.8822278049
 10
713.4775038951
 20
-162.6141775141
 10
712.0956637037
 20
-163.6280488641
 10
710.769453063
 20
-164.8912551955
 10
709.5414974741
 20
-166.3631960175
 10
708.4512644401
 20
-167.996561941
 10
707.5337949476
 20
-169.7388552411
 10
706.8185772212
 20
-171.5340771778
 10
706.3285989469
 20
-173.3245278408
 10
706.0796084297
 20
-175.0526606726
 10
706.0796084297
 20
-176.6629320621
 10
706.3285989469
 20
-178.1035865619
 10
706.8185772212
 20
-179.3283203511
 10
707.5337949476
 20
-180.2977694778
 10
708.3828365501
 20
-180.9437973162
  0
LWPOLYLINE
  5
1B4
330
1F
100
AcDbEntity
  8
0
  6
Continuous
 62
     1
370
    25
100
AcDbPolyline
 90
       19
 70
   128
 43
0.0
 10
550.2890038075
 20
-454.6397961198
 10
549.6390633138
 20
-454.3443414327
 10
548.4752839689
 20
-454.1290833003
 10
547.1930389125
 20
-454.2364306514
 10
545.8335405557
 20
-454.6629332539
 10
544.4404842945
 20
-455.394882963
 10
543.0586441031
 20
-456.408754313
 10
541.7324334624
 20
-457.6719606445
 10
540.5044778735
 20
-459.1439014665
 10
539.4142448394
 20
-460.77726739
 10
538.496775347
 20
-462.5195606901
 10
537.7815576206
 20
-464.3147826268
 10
537.2915793463
 20
-466.1052332897
 10
537.0425888291
 20
-467.8333661216
 10
537.0425888291
 20
-469.4436375111
 10
537.2915793463
 20
-470.8842920109
 10
537.7815576206
 20
-472.1090258
 10
538.496775347
 20
-473.0784749268
 10
539.3458169494
 20
-473.7245027652
  0
LWPOLYLINE
  5
1B5
330
1F
100
AcDbEntity
  8
0
  6
Continuous
 62
     1
370
    25
100
AcDbPolyline
 90
       19
 70
   128
 43
0.0
 10
674.0326905152
 20
-135.7033061234
 10
673.3827500215
 20
-135.4078514362
 10
672.2189706766
 20
-135.1925933039
 10
670.9367256201
 20
-135.299940655
 10
669.5772272634
 20
-135.7264432574
 10
668.1841710021
 20
-136.4583929666
 10
666.8023308108
 20
-137.4722643166
 10
665.47612017
 20
-138.735470648
 10
664.2481645812
 20
-140.20741147
 10
663.1579315471
 20
-141.8407773935
 10
662.2404620547
 20
-143.5830706937
 10
661.5252443282
 20
-145.3782926303
 10
661.035266054
 20
-147.1687432933
 10
660.7862755368
 20
-148.8968761251
 10
660.7862755368
 20
-150.5071475146
 10
661.035266054
 20
-151.9478020144
 10
661.5252443282
 20
-153.1725358036
 10
662.2404620547
 20
-154.1419849303
 10
663.0895036571
 20
-154.7880127687
  0
LWPOLYLINE
  5
1B6
330
1F
100
AcDbEntity
  8
0
  6
Continuous
 62
     1
370
    25
100
AcDbPolyline
 90
       19
 70
   128
 43
0.0
 10
504.9956709146
 20
-428.4840115723
 10
504.3457304209
 20
-428.1885568852
 10
503.181951076
 20
-427.9732987528
 10
501.8997060195
 20
-428.080646104
 10
500.5402076628
 20
-428.5071487064
 10
499.1471514015
 20
-429.2390984156
 10
497.7653112101
 20
-430.2529697656
 10
496.4391005694
 20
-431.516176097
 10
495.2111449805
 20
-432.988116919
 10
494.1209119465
 20
-434.6214828425
 10
493.2034424541
 20
-436.3637761426
 10
492.4882247276
 20
-438.1589980793
 10
491.9982464534
 20
-439.9494487423
 10
491.7492559362
 20
-441.6775815741
 10
491.7492559362
 20
-443.2878529636
 10
491.9982464534
 20
-444.7285074634
 10
492.4882247276
 20
-445.9532412525
 10
493.2034424541
 20
-446.9226903793
 10
494.0524840565
 20
-447.5687182177
  0
LWPOLYLINE
  5
1B7
330
1F
100
AcDbEntity
  8
0
  6
Continuous
 62
     1
370
    25
100
AcDbPolyline
 90
       19
 70
   128
 43
0.0
 10
612.1608471614
 20
-152.2769090416
 10
611.5109066677
 20
-151.9814543544
 10
610.3471273227
 20
-151.7661962221
 10
609.0648822663
 20
-151.8735435732
 10
607.7053839096
 20
-152.3000461756
 10
606.3123276483
 20
-153.0319958848
 10
604.9304874569
 20
-154.0458672348
 10
603.6042768162
 20
-155.3090735662
 10
602.3763212273
 20
-156.7810143883
 10
601.2860881933
 20
-158.4143803117
 10
600.3686187009
 20
-160.1566736119
 10
599.6534009744
 20
-161.9518955485
 10
599.1634227001
 20
-163.7423462115
 10
598.914432183
 20
-165.4704790433
 10
598.914432183
 20
-167.0807504328
 10
599.1634227001
 20
-168.5214049326
 10
599.6534009744
 20
-169.7461387218
 10
600.3686187009
 20
-170.7155878485
 10
601.2176603033
 20
-171.3616156869
  0
LWPOLYLINE
  5
1B8
330
1F
100
AcDbEntity
  8
0
  6
Continuous
 62
     1
370
    25
100
AcDbPolyline
 90
       19
 70
   128
 43
0.0
 10
488.4171604537
 20
-366.6072609061
 10
487.76721996
 20
-366.311806219
 10
486.6034406151
 20
-366.0965480866
 10
485.3211955587
 20
-366.2038954377
 10
483.9616972019
 20
-366.6303980401
 10
482.5686409406
 20
-367.3623477493
 10
481.1868007493
 20
-368.3762190993
 10
479.8605901085
 20
-369.6394254307
 10
478.6326345197
 20
-371.1113662528
 10
477.5424014856
 20
-372.7447321762
 10
476.6249319932
 20
-374.4870254764
 10
475.9097142667
 20
-376.282247413
 10
475.4197359925
 20
-378.072698076
 10
475.1707454753
 20
-379.8008309078
 10
475.1707454753
 20
-381.4111022973
 10
475.4197359925
 20
-382.8517567971
 10
475.9097142667
 20
-384.0764905863
 10
476.6249319932
 20
-385.045939713
 10
477.4739735956
 20
-385.6919675514
  0
LWPOLYLINE
  5
1B9
330
1F
100
AcDbEntity
  8
0
  6
Continuous
 62
     1
370
    25
100
AcDbPolyline
 90
       19
 70
   128
 43
0.0
 10
550.2890038075
 20
-207.1390159078
 10
549.6390633139
 20
-206.8435612207
 10
548.4752839689
 20
-206.6283030883
 10
547.1930389125
 20
-206.7356504395
 10
545.8335405557
 20
-207.1621530419
 10
544.4404842945
 20
-207.8941027511
 10
543.0586441031
 20
-208.9079741011
 10
541.7324334624
 20
-210.1711804325
 10
540.5044778735
 20
-211.6431212545
 10
539.4142448395
 20
-213.276487178
 10
538.496775347
 20
-215.0187804781
 10
537.7815576206
 20
-216.8140024148
 10
537.2915793463
 20
-218.6044530778
 10
537.0425888291
 20
-220.3325859096
 10
537.0425888291
 20
-221.9428572991
 10
537.2915793463
 20
-223.3835117989
 10
537.7815576206
 20
-224.6082455881
 10
538.496775347
 20
-225.5776947148
 10
539.3458169495
 20
-226.2237225532
  0
LWPOLYLINE
  5
1BA
330
1F
100
AcDbEntity
  8
0
  6
Continuous
 62
     1
370
    25
100
AcDbPolyline
 90
       19
 70
   128
 43
0.0
 10
504.9956709146
 20
-285.5893694923
 10
504.3457304209
 20
-285.2939148052
 10
503.181951076
 20
-285.0786566728
 10
501.8997060195
 20
-285.1860040239
 10
500.5402076628
 20
-285.6125066264
 10
499.1471514015
 20
-286.3444563355
 10
497.7653112102
 20
-287.3583276855
 10
496.4391005694
 20
-288.621534017
 10
495.2111449806
 20
-290.093474839
 10
494.1209119465
 20
-291.7268407624
 10
493.2034424541
 20
-293.4691340626
 10
492.4882247276
 20
-295.2643559993
 10
491.9982464534
 20
-297.0548066622
 10
491.7492559362
 20
-298.782939494
 10
491.7492559362
 20
-300.3932108836
 10
491.9982464534
 20
-301.8338653834
 10
492.4882247276
 20
-303.0585991725
 10
493.2034424541
 20
-304.0280482993
 10
494.0524840565
 20
-304.6740761377
  0
ENDSEC
  0
SECTION
  2
OBJECTS
  0
DICTIONARY
  5
C
330
0
100
AcDbDictionary
281
     1
  3
ACAD_GROUP
350
D
  3
ACAD_LAYOUT
350
1A
  3
ACAD_MLINESTYLE
350
17
  3
ACAD_PLOTSETTINGS
350
19
  3
ACAD_PLOTSTYLENAME
350
E
  3
ACAD_SCALELIST
350
47
  3
DWGPROPS
350
1BB
  0
DICTIONARY
  5
D
102
{ACAD_REACTORS
330
C
102
}
330
C
100
AcDbDictionary
281
     1
  0
DICTIONARY
  5
1A
102
{ACAD_REACTORS
330
C
102
}
330
C
100
AcDbDictionary
281
     1
  3
Layout1
350
1E
  3
Layout2
350
26
  3
Model
350
22
  0
DICTIONARY
  5
17
102
{ACAD_REACTORS
330
C
102
}
330
C
100
AcDbDictionary
281
     1
  3
Standard
350
18
  0
DICTIONARY
  5
19
102
{ACAD_REACTORS
330
C
102
}
330
C
100
AcDbDictionary
281
     1
  0
ACDBDICTIONARYWDFLT
  5
E
102
{ACAD_REACTORS
330
C
102
}
330
C
100
AcDbDictionary
281
     1
  3
Normal
350
F
100
AcDbDictionaryWithDefault
340
F
  0
DICTIONARY
  5
47
102
{ACAD_REACTORS
330
C
102
}
330
C
100
AcDbDictionary
281
     1
  3
A0
350
48
  3
A1
350
49
  3
A2
350
4A
  3
A3
350
4B
  3
A4
350
4C
  3
A5
350
4D
  3
A6
350
4E
  3
A7
350
4F
  3
A8
350
50
  3
A9
350
51
  3
B0
350
52
  3
B1
350
53
  3
B2
350
54
  3
B3
350
55
  3
B4
350
56
  3
B5
350
57
  3
B6
350
58
  3
B7
350
59
  3
B8
350
5A
  3
B9
350
5B
  3
C0
350
5C
  3
C1
350
5D
  3
C2
350
5E
  3
C3
350
5F
  3
C4
350
60
  3
C5
350
61
  3
C6
350
62
  3
C7
350
63
  3
C8
350
64
  3
C9
350
65
  3
D0
350
66
  3
D1
350
67
  3
D2
350
68
  0
XRECORD
  5
1BB
102
{ACAD_REACTORS
330
C
102
}
330
C
100
AcDbXrecord
280
     1
  1
DWGPROPS COOKIE
  2

  3

  4

  6

  7

  8
b.kav
  9

300
=
301
=
302
=
303
=
304
=
305
=
306
=
307
=
308
=
309
=
 40
0.0
 41
2459741.466023611
 42
2459741.466026366
  1

 90
        0
  0
LAYOUT
  5
1E
102
{ACAD_REACTORS
330
1A
102
}
330
1A
100
AcDbPlotSettings
  1

  2
none_device
  4

  6

 40
0.0
 41
0.0
 42
0.0
 43
0.0
 44
0.0
 45
0.0
 46
0.0
 47
0.0
 48
0.0
 49
0.0
140
0.0
141
0.0
142
1.0
143
1.0
 70
   688
 72
     1
 73
     0
 74
     5
  7

 75
    16
147
1.0
148
0.0
149
0.0
100
AcDbLayout
  1
Layout1
 70
     1
 71
     1
 10
0.0
 20
0.0
 11
420.0
 21
297.0
 12
0.0
 22
0.0
 32
0.0
 14
1.0000000000E+20
 24
1.0000000000E+20
 34
1.0000000000E+20
 15
-1.0000000000E+20
 25
-1.0000000000E+20
 35
-1.0000000000E+20
146
0.0
 13
0.0
 23
0.0
 33
0.0
 16
1.0
 26
0.0
 36
0.0
 17
0.0
 27
1.0
 37
0.0
 76
     0
330
1B
  0
LAYOUT
  5
26
102
{ACAD_REACTORS
330
1A
102
}
330
1A
100
AcDbPlotSettings
  1

  2
none_device
  4

  6

 40
0.0
 41
0.0
 42
0.0
 43
0.0
 44
0.0
 45
0.0
 46
0.0
 47
0.0
 48
0.0
 49
0.0
140
0.0
141
0.0
142
1.0
143
1.0
 70
   688
 72
     1
 73
     0
 74
     5
  7

 75
    16
147
1.0
148
0.0
149
0.0
100
AcDbLayout
  1
Layout2
 70
     1
 71
     2
 10
0.0
 20
0.0
 11
0.0
 21
0.0
 12
0.0
 22
0.0
 32
0.0
 14
0.0
 24
0.0
 34
0.0
 15
0.0
 25
0.0
 35
0.0
146
0.0
 13
0.0
 23
0.0
 33
0.0
 16
1.0
 26
0.0
 36
0.0
 17
0.0
 27
1.0
 37
0.0
 76
     0
330
23
  0
LAYOUT
  5
22
102
{ACAD_REACTORS
330
1A
102
}
330
1A
100
AcDbPlotSettings
  1

  2
none_device
  4
Letter_(8.50_x_11.00_Inches)
  6

 40
6.35
 41
6.35
 42
6.35000508
 43
6.35000508
 44
215.9
 45
279.4
 46
0.0
 47
0.0
 48
0.0
 49
0.0
140
0.0
141
0.0
142
1.0
143
1.0
 70
  1712
 72
     1
 73
     0
 74
     0
  7

 75
     0
147
1.0
148
0.0
149
0.0
100
AcDbLayout
  1
Model
 70
     1
 71
     0
 10
0.0
 20
0.0
 11
279.4
 21
215.9
 12
0.0
 22
0.0
 32
0.0
 14
0.0
 24
0.0
 34
0.0
 15
279.4
 25
215.9
 35
0.0
146
0.0
 13
0.0
 23
0.0
 33
0.0
 16
1.0
 26
0.0
 36
0.0
 17
0.0
 27
1.0
 37
0.0
 76
     0
330
1F
331
29
  0
MLINESTYLE
  5
18
102
{ACAD_REACTORS
330
17
102
}
330
17
100
AcDbMlineStyle
  2
Standard
 70
     0
  3

 62
   256
 51
90.0
 52
90.0
 71
     2
 49
0.5
 62
   256
  6
BYLAYER
 49
-0.5
 62
   256
  6
BYLAYER
  0
ACDBPLACEHOLDER
  5
F
102
{ACAD_REACTORS
330
E
102
}
330
E
  0
SCALE
  5
48
102
{ACAD_REACTORS
330
47
102
}
330
47
100
AcDbScale
 70
     0
300
1:1
140
1.0
141
1.0
290
     1
  0
SCALE
  5
49
102
{ACAD_REACTORS
330
47
102
}
330
47
100
AcDbScale
 70
     0
300
1:2
140
1.0
141
2.0
290
     0
  0
SCALE
  5
4A
102
{ACAD_REACTORS
330
47
102
}
330
47
100
AcDbScale
 70
     0
300
1:4
140
1.0
141
4.0
290
     0
  0
SCALE
  5
4B
102
{ACAD_REACTORS
330
47
102
}
330
47
100
AcDbScale
 70
     0
300
1:5
140
1.0
141
5.0
290
     0
  0
SCALE
  5
4C
102
{ACAD_REACTORS
330
47
102
}
330
47
100
AcDbScale
 70
     0
300
1:8
140
1.0
141
8.0
290
     0
  0
SCALE
  5
4D
102
{ACAD_REACTORS
330
47
102
}
330
47
100
AcDbScale
 70
     0
300
1:10
140
1.0
141
10.0
290
     0
  0
SCALE
  5
4E
102
{ACAD_REACTORS
330
47
102
}
330
47
100
AcDbScale
 70
     0
300
1:16
140
1.0
141
16.0
290
     0
  0
SCALE
  5
4F
102
{ACAD_REACTORS
330
47
102
}
330
47
100
AcDbScale
 70
     0
300
1:20
140
1.0
141
20.0
290
     0
  0
SCALE
  5
50
102
{ACAD_REACTORS
330
47
102
}
330
47
100
AcDbScale
 70
     0
300
1:30
140
1.0
141
30.0
290
     0
  0
SCALE
  5
51
102
{ACAD_REACTORS
330
47
102
}
330
47
100
AcDbScale
 70
     0
300
1:40
140
1.0
141
40.0
290
     0
  0
SCALE
  5
52
102
{ACAD_REACTORS
330
47
102
}
330
47
100
AcDbScale
 70
     0
300
1:50
140
1.0
141
50.0
290
     0
  0
SCALE
  5
53
102
{ACAD_REACTORS
330
47
102
}
330
47
100
AcDbScale
 70
     0
300
1:100
140
1.0
141
100.0
290
     0
  0
SCALE
  5
54
102
{ACAD_REACTORS
330
47
102
}
330
47
100
AcDbScale
 70
     0
300
2:1
140
2.0
141
1.0
290
     0
  0
SCALE
  5
55
102
{ACAD_REACTORS
330
47
102
}
330
47
100
AcDbScale
 70
     0
300
4:1
140
4.0
141
1.0
290
     0
  0
SCALE
  5
56
102
{ACAD_REACTORS
330
47
102
}
330
47
100
AcDbScale
 70
     0
300
8:1
140
8.0
141
1.0
290
     0
  0
SCALE
  5
57
102
{ACAD_REACTORS
330
47
102
}
330
47
100
AcDbScale
 70
     0
300
10:1
140
10.0
141
1.0
290
     0
  0
SCALE
  5
58
102
{ACAD_REACTORS
330
47
102
}
330
47
100
AcDbScale
 70
     0
300
100:1
140
100.0
141
1.0
290
     0
  0
SCALE
  5
59
102
{ACAD_REACTORS
330
47
102
}
330
47
100
AcDbScale
 70
     0
300
1/128" = 1'-0"
140
0.0078125
141
12.0
290
     0
  0
SCALE
  5
5A
102
{ACAD_REACTORS
330
47
102
}
330
47
100
AcDbScale
 70
     0
300
1/64" = 1'-0"
140
0.015625
141
12.0
290
     0
  0
SCALE
  5
5B
102
{ACAD_REACTORS
330
47
102
}
330
47
100
AcDbScale
 70
     0
300
1/32" = 1'-0"
140
0.03125
141
12.0
290
     0
  0
SCALE
  5
5C
102
{ACAD_REACTORS
330
47
102
}
330
47
100
AcDbScale
 70
     0
300
1/16" = 1'-0"
140
0.0625
141
12.0
290
     0
  0
SCALE
  5
5D
102
{ACAD_REACTORS
330
47
102
}
330
47
100
AcDbScale
 70
     0
300
3/32" = 1'-0"
140
0.09375
141
12.0
290
     0
  0
SCALE
  5
5E
102
{ACAD_REACTORS
330
47
102
}
330
47
100
AcDbScale
 70
     0
300
1/8" = 1'-0"
140
0.125
141
12.0
290
     0
  0
SCALE
  5
5F
102
{ACAD_REACTORS
330
47
102
}
330
47
100
AcDbScale
 70
     0
300
3/16" = 1'-0"
140
0.1875
141
12.0
290
     0
  0
SCALE
  5
60
102
{ACAD_REACTORS
330
47
102
}
330
47
100
AcDbScale
 70
     0
300
1/4" = 1'-0"
140
0.25
141
12.0
290
     0
  0
SCALE
  5
61
102
{ACAD_REACTORS
330
47
102
}
330
47
100
AcDbScale
 70
     0
300
3/8" = 1'-0"
140
0.375
141
12.0
290
     0
  0
SCALE
  5
62
102
{ACAD_REACTORS
330
47
102
}
330
47
100
AcDbScale
 70
     0
300
1/2" = 1'-0"
140
0.5
141
12.0
290
     0
  0
SCALE
  5
63
102
{ACAD_REACTORS
330
47
102
}
330
47
100
AcDbScale
 70
     0
300
3/4" = 1'-0"
140
0.75
141
12.0
290
     0
  0
SCALE
  5
64
102
{ACAD_REACTORS
330
47
102
}
330
47
100
AcDbScale
 70
     0
300
1" = 1'-0"
140
1.0
141
12.0
290
     0
  0
SCALE
  5
65
102
{ACAD_REACTORS
330
47
102
}
330
47
100
AcDbScale
 70
     0
300
1-1/2" = 1'-0"
140
1.5
141
12.0
290
     0
  0
SCALE
  5
66
102
{ACAD_REACTORS
330
47
102
}
330
47
100
AcDbScale
 70
     0
300
3" = 1'-0"
140
3.0
141
12.0
290
     0
  0
SCALE
  5
67
102
{ACAD_REACTORS
330
47
102
}
330
47
100
AcDbScale
 70
     0
300
6" = 1'-0"
140
6.0
141
12.0
290
     0
  0
SCALE
  5
68
102
{ACAD_REACTORS
330
47
102
}
330
47
100
AcDbScale
 70
     0
300
1'-0" = 1'-0"
140
12.0
141
12.0
290
     0
  0
ENDSEC
  0
EOF
